PrimaNota.ru - самый крупный в мире бесплатный архив песенных текстов, аккордов, табулатур и нот


Oconnor - Reflexión - таба, видео

Регистрация Запомнить меня
Войти через:  Facebook Google Twitter Vk Yandex Mail.ru

Oconnor - Reflexión - таба, видео

Печатать
Просмотров: 34
La 6ta cuerda afinada en D

Intro con bajo

e|--------------------------------------------------------------|
b|--------------------------------------------------------------|
g|--------------------------------------------------------------|
d|--------------------------------------------------------------|
a|--0---0-------------0---0------------0---0--------------------|
e|--0---0-------------0---0------------0---0--------------------|

canto x4
e|--------------------------------------------------------------------|----------------|
b|--------------------------------------------------------------------|----------------|
g|--------------------------------------------------------------------|----------------|
d|--------------------------------------------------------------------|----------------| 
a|--0--3--0--6-6--5--3--0--3--0--6-6-6-6--0--3--0---6-6--5--3--0--3---|--0-0-0-0-------|
e|--0--3--0--6-6--5--3--0--3--0--6-6-6-6--0--3--0---6-6--5--3--0--3---|--0-0-0-0-------|

e|------------------------------------------|
b|------------------------------------------|
g|------------------------------------------|
d|------------------------------------------|    x2
a|--0-0------------0-0----------3-0-3-0-3---|
e|--0-0---0-0-0-0--0-0--0-0-0-0-3-0-3-0-3---|

x4
e|--------------------------------------------------------------------|----------------|
b|--------------------------------------------------------------------|----------------|
g|--------------------------------------------------------------------|----------------|
d|--------------------------------------------------------------------|----------------| 
a|--0--3--0--6-6--5--3--0--3--0--6-6-6-6--0--3--0---6-6--5--3--0--3---|--0-0-0-0-------|
e|--0--3--0--6-6--5--3--0--3--0--6-6-6-6--0--3--0---6-6--5--3--0--3---|--0-0-0-0-------|

e|------------------------------------------|
b|------------------------------------------|
g|------------------------------------------|
d|------------------------------------------|    x2
a|--0-0------------0-0----------3-0-3-0-3---|
e|--0-0---0-0-0-0--0-0--0-0-0-0-3-0-3-0-3---|

x4
e|--------------------------------------------------------------------|----------------|
b|--------------------------------------------------------------------|----------------|
g|--------------------------------------------------------------------|----------------|
d|--------------------------------------------------------------------|----------------| 
a|--0--3--0--6-6--5--3--0--3--0--6-6-6-6--0--3--0---6-6--5--3--0--3---|--0-0-0-0-------|
e|--0--3--0--6-6--5--3--0--3--0--6-6-6-6--0--3--0---6-6--5--3--0--3---|--0-0-0-0-------|


En el estribillo hace arpegios en re, do la# , la      x4
solo

x4
e|--------------------------------------------------------------------|----------------|
b|--------------------------------------------------------------------|----------------|
g|--------------------------------------------------------------------|----------------|
d|--------------------------------------------------------------------|----------------| 
a|--0--3--0--6-6--5--3--0--3--0--6-6-6-6--0--3--0---6-6--5--3--0--3---|--0-0-0-0-------|
e|--0--3--0--6-6--5--3--0--3--0--6-6-6-6--0--3--0---6-6--5--3--0--3---|--0-0-0-0-------|

estribillo
e|--------------------|
b|--------------------|
g|--------------------|   x4
d|--------------------|
a|-0---------3--5--3--|
e|-0-0-0-0-0-3--5--3--|
Добавлено: 24.04.2016
Другие материалы по этой песне:
  • Аккорды и текст

Страница создана 24.04.2016
http://primanota.ru/oconnor/reflexion-chords.htm
Привет, Гость.
Предлагаем пройти революционный курс по гитаре.
Подарок от PrimaNota.Ru, забирай!