PrimaNota.ru - самый крупный в мире бесплатный архив песенных текстов, аккордов, табулатур и нот


Oconnor - Jardín De La Eternidad - таба, видео

Регистрация Запомнить меня
Войти через:  Facebook Google Twitter Vk Yandex Mail.ru

Oconnor - Jardín De La Eternidad - таба, видео

Печатать
Просмотров: 50
Ovioo que afinado la 6ta en drop-d (Re)

intro
1/-------------------------
2/-------------------------
3/----------------5-4------
4/--7----7--------5-4-6-7--
5/--7----7------------6-7--
6/----44---444444----------

El aire quema en la ventana cuando respiras
Porque la niebla súper humana ya nos invadió
Justo hoy

Vamos corriendo por la cornisa a gran velocidad
La tierra grita y no tenemos ganas de escuchar
Nada más
1/------------------------------------------
2/------------------------------------------
3/--------------5-4-------------------------
4/--------------5-4-6-7-------------00--55--
5/------------------6-7-------------00--55--
6/-44444444444----------4444444444--00--55--

Dale que va, acelera,
Ese jardín de la eternidad
Dale que va, acelera,
Ese jardín de la eternidad

1/---------------------------------
2/---------------------------------
3/------5------5------5-8-7-5-7-5--
4/--7h6-5--7h6-5--7h6-5-8-7-5-7-5--
5/--7h6----7h6----7h6--------------
6/---------------------------------

Hay que saber cuanto tiempo mas podemos aguantar
Acumulando cositas muertas en ese placard
Cuanto más

Vamos corriendo por la cornisa a gran velocidad
La tierra grita y no tenemos ganas de escuchar
Nada más
1/------------------------------------------
2/------------------------------------------
3/--------------5-4-------------------------
4/--------------5-4-6-7-------------00--55--
5/------------------6-7-------------00--55--
6/-44444444444----------4444444444--00--55--


pre solo
1/---------------------------------
2/---------------------------------
3/---------------------------------
4/--5--3--2----5--3--2--8-7-5-7-5--
5/--3--1--0----3--1--0--8-7-5-7-5--
6/---------------------------------

Fin :D
Добавлено: 24.04.2016
Другие материалы по этой песне:
  • Аккорды и текст

Страница создана 24.04.2016
http://primanota.ru/oconnor/jardin-de-la-eternidad-chords.htm
Привет, Гость.
Предлагаем пройти революционный курс по гитаре.
Подарок от PrimaNota.Ru, забирай!