PrimaNota.ru - самый крупный в мире бесплатный архив песенных текстов, аккордов, табулатур и нот


Oconnor - Inservible Por Decreto - таба, видео

Регистрация Запомнить меня
Войти через:  Facebook Google Twitter Vk Yandex Mail.ru

Oconnor - Inservible Por Decreto - таба, видео

Печатать
Просмотров: 40
Hola les traigo esta tab :D ovioo q la 6ta esta drop d (Re)

intro
1/---------------------------------
2/---------------------------------
3/---------------------------------
4/---------------------------5-77--
5/------3-2-7--00--------3-2-3-55--
6/--0-2-3-2-7--00----0-2-3-2-------

1/---------------------------------
2/---------------------------------
3/---------------------------------
4/---------------------------5-77--
5/------3-2-7--00--------3-2-3-55--
6/--0-2-3-2-7--00----0-2-3-2-------

Estooo si quieres los haces con waha waha o no :D
1/-------------------------------------------------------------
2/-------------------------------------------------------------
3/-------------------------------------------------------------
4/----------3-3b---------3-3b-----------3-3b----------7-6-5-3--
5/----5-3-5------5-3-5-3------5-3-5-3-5------5-3-5-3--7-6-5-3--
6/----------------------------------------------------7-6-5-3--


Decidido la calle encarás
Confundido de necesidades
Caminas y en el piso ves
Tu futuro algo borroneado

No estas solo lo sabes muy bien
Hay millones de nuevos parias
En su tierra sin tener que hacer
La desgracia del desocupado

1/-------------------------------------------------------------
2/-------------------------------------------------------------
3/-------------------------------------------------------------
4/----------3-3b---------3-3b-----------3-3b----------7-6-5-3--
5/----5-3-5------5-3-5-3------5-3-5-3-5------5-3-5-3--7-6-5-3--
6/----------------------------------------------------7-6-5-3--


Por decreto inservible sos
Formando largas colas por nada
En encuestas ya no figurás
Porque del mapa ya te borraron

1/--------------------------------------
2/--------------------------------------
3/--------------------------------------
4/--00--33----55---------00--33----55---
5/--00--33----33-55------00--33----33---
6/--00--33333----55555---oo--33333------

1/-----------------
2/-----------------
3/-----------------
4/--33-------------
5/--11111--11------
6/---------11111---

Y el sistema para qué está?
Si te exprimen en cualquier mercado
Por unos mangos podes defender
A tu sponsor pateando a tu hermano
1/-------------------------------------------------------------
2/-------------------------------------------------------------
3/-------------------------------------------------------------
4/----------3-3b---------3-3b-----------3-3b----------7-6-5-3--
5/----5-3-5------5-3-5-3------5-3-5-3-5------5-3-5-3--7-6-5-3--
6/----------------------------------------------------7-6-5-3--

Por decreto inservible sos
Formando largas colas por nada
En encuestas ya no figurás
Porque del mapa ya te borraron

1/--------------------------------------
2/--------------------------------------
3/--------------------------------------
4/--00--33----55---------00--33----55---
5/--00--33----33-55------00--33----33---
6/--00--33333----55555---oo--33333------

1/-----------------
2/-----------------
3/-----------------
4/--33-------------
5/--11111--11------
6/---------11111---

Pre Solo!
1/--------------------------------------
2/--------------------------------------
3/--------------------------------------
4/--6p5--3p0---------6p5--3p0-----------
5/--6p5--3p0---------6p5--3p0-----------
6/--6p5--3p0-00000---6p5--3p0--0000-----

1/---------------------------------
2/---------------------------------
3/---------------------------------
4/---------------------------5-77--
5/------3-2-7--00--------3-2-3-55--
6/--0-2-3-2-7--00----0-2-3-2-------

1/-------------------------------------------------------------
2/-------------------------------------------------------------
3/-------------------------------------------------------------
4/----------3-3b---------3-3b-----------3-3b----------7-6-5-3--
5/----5-3-5------5-3-5-3------5-3-5-3-5------5-3-5-3--7-6-5-3--
6/----------------------------------------------------7-6-5-3--

1/-------------------------------------------------------------
2/-------------------------------------------------------------
3/-------------------------------------------------------------
4/----------3-3b---------3-3b-----------3-3b----------7-6-5-3--
5/----5-3-5------5-3-5-3------5-3-5-3-5------5-3-5-3--7-6-5-3--
6/----------------------------------------------------7-6-5-3--


Aca es en la parte que dice por decretoo inservible sos!
1/--------------------------------------
2/--------------------------------------
3/--------------------------------------
4/--00--33----55---------00--33----55---
5/--00--33----33-55------00--33----33---
6/--00--33333----55555---00--33333------


1/------------------------------------
2/------------------------------------
3/------------------------------------
4/--33-------------33------------88---
5/--11111--11------11111--11-----66---
6/---------11111----------11111-------

1/-------------------------------------------------------------
2/-------------------------------------------------------------
3/-------------------------------------------------------------
4/----------3-3b---------3-3b-----------3-3b----------7-6-5-3--
5/----5-3-5------5-3-5-3------5-3-5-3-5------5-3-5-3--7-6-5-3--
6/----------------------------------------------------7-6-5-3--

fin....
Добавлено: 24.04.2016
Другие материалы по этой песне:
  • Аккорды и текст

Страница создана 24.04.2016
http://primanota.ru/oconnor/inservible-por-decreto-chords.htm
Привет, Гость.
Предлагаем пройти революционный курс по гитаре.
Подарок от PrimaNota.Ru, забирай!