PrimaNota.ru - самый крупный в мире бесплатный архив песенных текстов, аккордов, табулатур и нот


Oconnor - Imperdonable - таба, видео

Регистрация Запомнить меня
Войти через:  Facebook Google Twitter Vk Yandex Mail.ru

Oconnor - Imperdonable - таба, видео

Печатать
Просмотров: 66
Intro: Riff 1
e|-----------------------------|-------------------------------|
b|-----------------------------|-------------------------------|
g|-----------------------------|-------------------------------|
d|-----------------------------|-------------------------------|
a|--0--3--5--6--5--3--5--3--0--|--0--3--5--6--5--3--5--3--6----|
e|--0--3--5--6--5--3--5--3--0--|--0--3--5--6--5--3--5--3--6----|

e|-----------------------------|-------------------------------------------|----------------
b|-----------------------------|-------------------------------------------|----------------
g|-----------------------------|-------------------------------------------|----------------
d|-----------------------------|-------------------------------------------|----------------
a|--0--3--5--6--5--3--5--3--0--|--0--3--5--6--5--3--5--3--6--5--3--5--3--6-|-5--3--5--3--0--
e|--0--3--5--6--5--3--5--3--0--|--0--3--5--6--5--3--5--3--6--5--3--5--3--6-|-5--3--5--3--0?

e|-----------------------------|-------------------------------|
b|-----------------------------|-------------------------------|
g|-----------------------------|-------------------------------|
d|-----------------------------|-------------------------------|
a|--0--3--5--6--5--3--5--3--0--|--0--3--5--6--5--3--5--3--6----|
e|--0--3--5--6--5--3--5--3--0--|--0--3--5--6--5--3--5--3--6----|

e|-----------------------------|-------------------------------------------|----------------
b|-----------------------------|-------------------------------------------|----------------
g|-----------------------------|-------------------------------------------|----------------
d|-----------------------------|-------------------------------------------|----------------
a|--0--3--5--6--5--3--5--3--0--|--0--3--5--6--5--3--5--3--6--5--3--5--3--6-|-5--3--5--3--0--
e|--0--3--5--6--5--3--5--3--0--|--0--3--5--6--5--3--5--3--6--5--3--5--3--6-|-5--3--5--3--0--

Riff 2
e|-------------------------------|-------------------------------|
b|-------------------------------|-------------------------------|
g|-------------------------------|-------------------------------|
d|-------------------------------|-------------------------------|     x2
a|-0-------0-------0--6-5--0-----|--0-----0-----6--5--3--6-------|
e|-0--0-0--0--0-0--0--6-5--0-----|--0--0--0--0--6--5--3--6-------|
canto con el riff 2

e|-----------------------------|-------------------------------|
b|-----------------------------|-------------------------------|
g|-----------------------------|-------------------------------|
d|-----------------------------|-------------------------------|
a|--0--3--5--6--5--3--5--3--0--|--0--3--5--6--5--3--5--3--6----|
e|--0--3--5--6--5--3--5--3--0--|--0--3--5--6--5--3--5--3--6----|

e|-----------------------------|-------------------------------------------|----------------
b|-----------------------------|-------------------------------------------|----------------
g|-----------------------------|-------------------------------------------|----------------
d|-----------------------------|-------------------------------------------|----------------
a|--0--3--5--6--5--3--5--3--0--|--0--3--5--6--5--3--5--3--6--5--3--5--3--6-|-5--3--5--3--0--
e|--0--3--5--6--5--3--5--3--0--|--0--3--5--6--5--3--5--3--6--5--3--5--3--6-|-5--3--5--3--0--


Riff 2
e|-----------------------------|-------------------------------|
b|-----------------------------|-------------------------------|
g|-----------------------------|-------------------------------|
d|-----------------------------|-------------------------------|
a|--0--3--5--6--5--3--5--3--0--|--0--3--5--6--5--3--5--3--6----|
e|--0--3--5--6--5--3--5--3--0--|--0--3--5--6--5--3--5--3--6----|

e|-----------------------------|-------------------------------------------|----------------
b|-----------------------------|-------------------------------------------|----------------
g|-----------------------------|-------------------------------------------|----------------
d|-----------------------------|-------------------------------------------|----------------
a|--0--3--5--6--5--3--5--3--0--|--0--3--5--6--5--3--5--3--6--5--3--5--3--6-|-5--3--5--3--0--
e|--0--3--5--6--5--3--5--3--0--|--0--3--5--6--5--3--5--3--6--5--3--5--3--6-|-5--3--5--3--0--

e|-----------------------------|-------------------------------|
b|-----------------------------|-------------------------------|
g|-----------------------------|-------------------------------|
d|-----------------------------|-------------------------------|
a|--0--3--5--6--5--3--5--3--0--|--0--3--5--6--5--3--5--3--6----|
e|--0--3--5--6--5--3--5--3--0--|--0--3--5--6--5--3--5--3--6----|

e|-----------------------------|-------------------------------------------|----------------
b|-----------------------------|-------------------------------------------|----------------
g|-----------------------------|-------------------------------------------|----------------
d|-----------------------------|-------------------------------------------|----------------
a|--0--3--5--6--5--3--5--3--0--|--0--3--5--6--5--3--5--3--6--5--3--5--3--6-|-5--3--5--3--0--
e|--0--3--5--6--5--3--5--3--0--|--0--3--5--6--5--3--5--3--6--5--3--5--3--6-|-5--3--5--3--0--

antes del solo 
e|------------------------------------------------------|
b|------------------------------------------------------|
g|------------------------------------------------------|
d|--7--------7--------5-------5-------------------------|
a|--5--------5--------3-------3---------5--------3------|
e|----0-0-0----0-0-0----0-0-0----0-0-0--5--0-0-0-3------|
despues del solo el primer riff x2
Добавлено: 20.04.2016
Другие материалы по этой песне:
  • Аккорды и текст

Страница создана 20.04.2016
http://primanota.ru/oconnor/imperdonable-chords.htm
Привет, Гость.
Предлагаем пройти революционный курс по гитаре.
Подарок от PrimaNota.Ru, забирай!