PrimaNota.ru - самый крупный в мире бесплатный архив песенных текстов, аккордов, табулатур и нот


Oconnor - Ciencia Satánica - таба, видео

Регистрация Запомнить меня
Войти через:  Facebook Google Twitter Vk Yandex Mail.ru

Oconnor - Ciencia Satánica - таба, видео

Печатать
Просмотров: 113
Уроки эстрадного вокала в Санкт-Петербурге
Aca Les Traigo El Tema De O'connor Ciensa Satanica
Intro:
E--------------------------
B--------------------------
G--------------------------
d--9-9-9-9-9-9-9-9-9-9-9---
A--9-9-9-9-9-9-9-9-9-9-9---
E--7-7-7-7-7-7-7-7-7-7-7---

Intro Dist Con Distorcion:
E--------------------------
B--------------------------
G--------------------------
d-7-9-6-9-----5-4----------
A-5-7-8-7-----3-2----------
E--------------------------

Estrofa:
E--------------------------
B--------------------------
G--------------------------
d-7/9-9-9-9-10-10-10/6-----
A-5/7-7-7-7-8-8-8/4--------
E--------------------------
Estrofa 2:
E---------------------------------------------------------------
B---------------------------------------------------------------
G---------------------------------------------------------------
d-7-9-9-9---4-4-4---5-5-5----------7-9-9-9---4-4-4---5-5-5------
A-5-7-7-7---2-2-2---3-3-3-7-7-7----5-7-7-7---2-2-2---3-3-3-5-5-5
E-------------------------5-5-5----------------------------3-3-3

Comienta Con El Intro+Intro Dist Con Distorcion


Estrofa

La vida observas
detrás de un lente
Tu mundo digital
Como es
Y competís con Dios
Por tu capricho
Armas biológicas
Ciencia Satánica

Estrofa 2

Revelando
sin secretos prohibidos

Intro+Intro Dist Con Distorcion

Nació sin amor
Es la clonación


Estrofa

Herencia del terror
Experimentos
Sirviendo al poder
Otra vez utilizándolos
Para joder.
Armas biológicas
Ciencia Satánica

Estrofa 2

Revelando
sin secretos prohibidos

Intro+Intro Dist Con Distorcion
Nació sin amor
Es la clonación


Solo............

Estrofa 2
Deformando
sin secretos prohibidos

Intro+Intro Dist Con Distorcion

Nació sin amor
Es la clonación.
Добавлено: 20.04.2016
Другие материалы по этой песне:
  • Аккорды и текст

Страница создана 20.04.2016
http://primanota.ru/oconnor/ciencia-satanica-chords.htm
Привет, Гость.
Предлагаем пройти революционный курс по гитаре.
Подарок от PrimaNota.Ru, забирай!