PrimaNota.ru - самый крупный в мире бесплатный архив песенных текстов, аккордов, табулатур и нот


Oconnor - Canibal - таба, видео

Регистрация Запомнить меня
Войти через:  Facebook Google Twitter Vk Yandex Mail.ru

Oconnor - Canibal - таба, видео

Печатать
Просмотров: 44
O'connor - Yo Canibal

6ta en Re (d)

Riff
1|------------------6-6-6-6-
2|------------------6-6-6-6-
3|--------------------------
4|-----7-77---8-7-----------
5|-----5-55---5-5-----------
6|-0-0------0-----0---------

Riff 1
  Am          A5#
1|---0--------1-1-------
2|-1---1------2---2-----
3|-2-----2----3-----3---
4|-2-------2--3-------3-
5|-0----------1--------
6|---------------------


Riff
No se entiende el menu
pero la salsa abunda.
Soy un Gourmet que huele eternamente mal.

Riff 1
Am
Viejas compotas que no dan respiro
A5#
al canibal que hay en mi
Am                                A5#
que no es bien recibido en un banquete asi

Repite Igual

Riff
Se amansan las fortunas,
se cargan los bolisillos
de presa saca de oro falso de Vermouth.

Riff 1
Me acaban el cerebro a mordicos,
bebiendo el jugo de mi corazon
y me cuentan cuentos al ir a dormir.

F5       C5          A5#
A un cordero de mi estilo
F5       C5          A5#
a un canibal de mi estilo.


Riff (Mas un corte)
1|------------------6-6-6-6-|------------------6-
2|------------------6-6-6-6-|------------------6-
3|--------------------------|--------------------
4|-----7-77---8-7-----------|-----7-77---8-7-----
5|-----5-55---5-5-----------|-----5-55---5-5-----
6|-0-0------0-----0---------|-0-0------0-----0---


Riff
Voy al Coliseo a prenderme fuego
Mi racha de novato nunca cambiara

Riff 1
Por favor! que el adios no se alargue
me canse de tanto esperar...
cuando el fuego crezca quiero estar alli.

Un cordero de mi estilo
a un canibal de mi estilo.
Un cordero de mi estilo
a un canibal de mi estilo.

Solo (Sobre Riff)

Riff 1
Por favor! que el adios no se alargue
me canse de tanto esperar...
cuando el fuego crezca quiero estar alli.

Un cordero de mi estilo
a un canibal de mi estilo.
Un cordero de mi estilo
a un canibal de mi estilo.
Добавлено: 20.04.2016
Другие материалы по этой песне:
  • Аккорды и текст

Страница создана 20.04.2016
http://primanota.ru/oconnor/canibal-chords.htm
Привет, Гость.
Предлагаем пройти революционный курс по гитаре.
Подарок от PrimaNota.Ru, забирай!