PrimaNota.ru - самый крупный в мире бесплатный архив песенных текстов, аккордов, табулатур и нот


Oconnor - Algo De Mí - таба, видео

Регистрация Запомнить меня
Войти через:  Facebook Google Twitter Vk Yandex Mail.ru

Oconnor - Algo De Mí - таба, видео

Печатать
Просмотров: 128
Уроки эстрадного вокала в Санкт-Петербурге
Afinar bajando la sexta a RE.


Base
    C9
E|-------------------------------------------------------
B|-----------3--------------3--------------3----0--------
G|--------0--------------0--------------0----------0-----
D|-----2--------------2--------------2----------------2--
A|--3---------------3-------------3----------------------
D|-------------------------------------------------------


Puente
      C         C9        C         C9
E|----0---------0---------0---------0--------------------
B|----1---------3---------1---------3--------------------
G|----0---------0---------0---------0--------------------
D|----2---------2---------2---------2--------------------
A|----3---------3---------3---------3--------------------
D|-------------------------------------------------------


Estribillo
      C         Em        C/F       C/F
E|----0---------0---------0---------0--------------------
B|----1---------0---------1---------1--------------------
G|----0---------0---------0---------0--------------------
D|----2---------2---------3---------3--------------------
A|----3---------2---------3---------3--------------------
D|--------------2---------3---------3--------------------


Base2
    D11                           C7           F
E|-------------------------------------------------------
B|-----------------------------------------0-------------
G|-----------0---------------0----------0----------------
D|--------4---------------4----------2----------3--------
A|-----5---------------5----------3-------------3--------
D|--0---------------0---------------------------3--------


Solo

E|-------------------------------------------------------
B|-----------------------------------8-----8---------8-10
G|-------------------------------7/9---7b----5---7/9-----
D|-----------------5--7-10-------------------------------
A|---------3--5/7----------------------------------------
D|--5--5/7-----------------------------------------------


E|-8------8-------8-----8--------------------------------
B|-10-8---10-8---10-8---8-10-----------------------------
G|------9-9----9-9----9------9--------7b-5---------------
D|-------------------------------------------------------
A|-------------------------------------------------------
D|-------------------------------------------------------

b: Estirar full
/: Arrastre


Final
    C9              G7M/C         G7 
E|-------------------------------------------------2-----
B|-----------3--------------3--------------3--------3----
G|--------0--------------0--------------0------------2---
D|-----2--------------4--------------4-------------------
A|--3---------------3-------------2----------------------
D|-------------------------------------------------------


Base
Estamos solos al final
Base
No tengas miedo, esto es así
Base               *(no tocar las ultimas tres notas)
Es difícil poder arrancar

Puente
Desde aquí, Desde aquí

Base
La noche tibia me abrazo
Base
Pero el humor no me cambio
Base               *(no tocar las ultimas tres notas)
Laberintos hay que atravesar

Puente
Desde aquí, Desde aquí

Base
Me acostumbre a despertar
Base
Con la nostalgia en la voz
Base               *(no tocar las ultimas tres notas)
Laberintos hay que atravesar

Puente
Desde aquí, Desde aquí

Estribillo
Elegí el camino que sentí
Estribillo
dejando atrás, algo de mi
Estribillo
Aposté mi vida y perdí
Estribillo
dejando atrás algo de mi

Base2
Algo deee mi
Base2
Algo deee mi

Solo

Base
Estamos solos al final
Base
Con la nostalgia en la voz
Base               *(no tocar las ultimas tres notas)
Laberintos hay que atravesar

Puente
Desde aquí, Desde aquí

Estribillo
Elegí el camino que sentí
Estribillo
dejando atrás algo de mi
Estribillo
Aposté mi vida y perdí
Estribillo
dejando atrás algo de mi
Estribillo
Elegí el camino que sentí
Estribillo
dejando atrás algo de mi
Estribillo
Aposté mi vida y perdí
Estribillo
dejando atrás algo de mi

Final


NOTA: NO OLVIDAR que esta canción esta afinada con la
sexta cuerda en Re (DADGBE)(ReLaReSolSiMi).

Cualquier duda o error pueden mandarme un mail.
Tengo el tema entero en el guitar pro.
Suerte con el tema!
Добавлено: 20.04.2016
Другие материалы по этой песне:
  • Аккорды и текст

Страница создана 20.04.2016
http://primanota.ru/oconnor/algo-de-mi-chords.htm
Привет, Гость.
Предлагаем пройти революционный курс по гитаре.
Подарок от PrimaNota.Ru, забирай!