PrimaNota.ru - самый крупный в мире бесплатный архив песенных текстов, аккордов, табулатур и нот


Oceans Divide - Overcome - таба, видео

Регистрация Запомнить меня
Войти через:  Facebook Google Twitter Vk Yandex Mail.ru

Oceans Divide - Overcome - таба, видео

Печатать
Просмотров: 102
-------------------------------------------------------------------------------
                             Overcome - Oceans Divide
-------------------------------------------------------------------------------
If you have any suggestions let me know. ^^
Riffstation: http://play.riffstation.com/?v=VwVmVyLuJQg
I allso have a video:
Tabbed by: Bart Baart
E-mail: DG.Cryard@gmail.com
Tuning: Drop C#


[INTRO]
d#|-----------------|-----------------|-------------------------|-------------------------|
a#|-----------------|-----------------|-------------------------|-------------------------|
f#|-----------------|-----------------|-------------------------|-------------------------|
c#|-2-2-2-2-2-2-2-2-|-5-5-5-5-4-4-4-4-|-10-10-10-10-10-10-10-10-|-12-12-12-12-12-12-12-12-|
g#|-2-2-2-2-2-2-2-2-|-2-2-2-2-2-2-2-2-|-10-10-10-10-10-10-10-10-|-10-10-10-10-10-10-10-10-|
c#|-2-2-2-2-2-2-2-2-|-2-2-2-2-2-2-2-2-|-10-10-10-10-10-10-10-10-|-10-10-10-10-10-10-10-10-|

d#|---------------|-----------------|---------------|-----------------|
a#|---------------|-----------------|---------------|-----------------|
f#|---------------|-----------------|---------------|-----------------|
c#|-0-0-0-0---0-0-|-0-0-0-0-0-0-0-0-|-0-0-0-0---0-0-|-0-0-0-0-0-0-0-0-|
g#|-0-0-0-0---0-0-|-0-0-0-0-0-0-0-0-|-0-0-0-0---0-0-|-0-0-0-0-0-0-0-0-|
c#|-0-0-0-0---0-0-|-0-0-0-0-0-0-0-0-|-0-0-0-0---0-0-|-0-0-0-0-0-0-0-0-|[REPEAT 2X]


[VERSE ONE]
No guitar, bass plays d#, b, f#


[PRE-CHORUS]
d#|------------------|------------------|---------------|---------------|
a#|------------------|------------------|---------------|---------------|
g |------------------|------------------|---------------|---------------|
c#|-x-x-x--10-10-10--|-x-x-x--10-10-10--|-x-x-x--2-2-2--|-x-x-x--2-2-2--|
g#|-x-x-x--10-10-10--|-x-x-x--10-10-10--|-x-x-x--2-2-2--|-x-x-x--2-2-2--|
c#|-x-x-x--10-10-10--|-x-x-x--10-10-10--|-x-x-x--2-2-2--|-x-x-x--2-2-2--|

d#|------------------|------------------|-------------|-------------|
a#|------------------|------------------|-------------|-------------|
g |------------------|------------------|-------------|-------------|
c#|-x-x-x--10-10-10--|-x-x-x--10-10-10--|-0--0--0--0--|-0--0--0--0--|
g#|-x-x-x--10-10-10--|-x-x-x--10-10-10--|-0--0--0--0--|-0--0--0--0--|
c#|-x-x-x--10-10-10--|-x-x-x--10-10-10--|-0--0--0--0--|-0--0--0--0--|


[CHORUS]
d#|-----------------|---------------|-------------|------------|
a#|-----------------|---------------|-------------|------------|
f#|-----------------|---------------|-------------|------------|
c#|-10--10--10--10--|---10--10--10--|-7--7--7--7--|---7--7--7--|
g#|-10--10--10--10--|---10--10--10--|-7--7--7--7--|---7--7--7--|
c#|-10--10--10--10--|---10--10--10--|-7--7--7--7--|---7--7--7--|

d#|-------------|------------|-------------|------------|
a#|-------------|------------|-------------|------------|
f#|-------------|------------|-------------|------------|
c#|-0--0--0--0--|---0--0--0--|-2--2--2--2--|---0--0--0--|
g#|-0--0--0--0--|---0--0--0--|-2--2--2--2--|---0--0--0--|
c#|-0--0--0--0--|---0--0--0--|-2--2--2--2--|---0--0--0--|

d#|-----------------|---------------|-------------|------------|
a#|-----------------|---------------|-------------|------------|
f#|-----------------|---------------|-------------|------------|
c#|-10--10--10--10--|---10--10--10--|-7--7--7--7--|---7--7--7--|
g#|-10--10--10--10--|---10--10--10--|-7--7--7--7--|---7--7--7--|
c#|-10--10--10--10--|---10--10--10--|-7--7--7--7--|---7--7--7--|

d#|-------------|------------|-------------|------------|
a#|-------------|------------|-------------|------------|
f#|-------------|------------|-------------|------------|
c#|-0--0--0--0--|---0--0--0--|-0--0--0--0--|---0--0--0--|
g#|-0--0--0--0--|---0--0--0--|-0--0--0--0--|---0--0--0--|
c#|-0--0--0--0--|---0--0--0--|-0--0--0--0--|---0--0--0--|


[VERSE TWO] (Same as intro, but only play it ones)
d#|-----------------|-----------------|-------------------------|-------------------------|
a#|-----------------|-----------------|-------------------------|-------------------------|
f#|-----------------|-----------------|-------------------------|-------------------------|
c#|-2-2-2-2-2-2-2-2-|-5-5-5-5-4-4-4-4-|-10-10-10-10-10-10-10-10-|-12-12-12-12-12-12-12-12-|
g#|-2-2-2-2-2-2-2-2-|-2-2-2-2-2-2-2-2-|-10-10-10-10-10-10-10-10-|-10-10-10-10-10-10-10-10-|
c#|-2-2-2-2-2-2-2-2-|-2-2-2-2-2-2-2-2-|-10-10-10-10-10-10-10-10-|-10-10-10-10-10-10-10-10-|

d#|---------------|-----------------|---------------|-----------------|
a#|---------------|-----------------|---------------|-----------------|
f#|---------------|-----------------|---------------|-----------------|
c#|-0-0-0-0---0-0-|-0-0-0-0-0-0-0-0-|-0-0-0-0---0-0-|-0-0-0-0-0-0-0-0-|
g#|-0-0-0-0---0-0-|-0-0-0-0-0-0-0-0-|-0-0-0-0---0-0-|-0-0-0-0-0-0-0-0-|
c#|-0-0-0-0---0-0-|-0-0-0-0-0-0-0-0-|-0-0-0-0---0-0-|-0-0-0-0-0-0-0-0-|


[VERSE ONE]
No guitar, bass plays d#, b, f#


[PRE-CHORUS]
just play the pre-chorus like before


[CHORUS]
Just play the chorus like before


[SOLO] (I don't have tabs for the solo)
Just play the chorus


[BRIDGE](simillar to chorus)
d#|-----------------|---------------|-------------|------------|
a#|-----------------|---------------|-------------|------------|
f#|-----------------|---------------|-------------|------------|
c#|-10--10--10--10--|---10--10--10--|-7--7--7--7--|---7--7--7--|
g#|-10--10--10--10--|---10--10--10--|-7--7--7--7--|---7--7--7--|
c#|-10--10--10--10--|---10--10--10--|-7--7--7--7--|---7--7--7--|

d#|-------------|------------|-------------|---------|
a#|-------------|------------|-------------|---------|
f#|-------------|------------|-------------|---------|
c#|-0--0--0--0--|---0--0--0--|-2--2--2--2--|---------|
g#|-0--0--0--0--|---0--0--0--|-2--2--2--2--|---------|
c#|-0--0--0--0--|---0--0--0--|-2--2--2--2--|---------|


[CHORUS]
Just play the chorus


[VERSE THREE] (same as chorus)
Just play the chorus again


[OUTRO] (similar to intro)
d#|-----------------|-----------------|-------------------------|-------------------------|
a#|-----------------|-----------------|-------------------------|-------------------------|
f#|-----------------|-----------------|-------------------------|-------------------------|
c#|-2-2-2-2-2-2-2-2-|-5-5-5-5-4-4-4-4-|-10-10-10-10-10-10-10-10-|-12-12-12-12-12-12-12-12-|
g#|-2-2-2-2-2-2-2-2-|-2-2-2-2-2-2-2-2-|-10-10-10-10-10-10-10-10-|-10-10-10-10-10-10-10-10-|
c#|-2-2-2-2-2-2-2-2-|-2-2-2-2-2-2-2-2-|-10-10-10-10-10-10-10-10-|-10-10-10-10-10-10-10-10-|

d#|---------------|-----------------|---------------|-----------------|----------|
a#|---------------|-----------------|---------------|-----------------|----------|
f#|---------------|-----------------|---------------|-----------------|----------|
c#|-0-0-0-0---0-0-|-0-0-0-0-0-0-0-0-|-0-0-0-0---0-0-|-0-0-0-0-0-0-0-0-|-2--------|
g#|-0-0-0-0---0-0-|-0-0-0-0-0-0-0-0-|-0-0-0-0---0-0-|-0-0-0-0-0-0-0-0-|-2--------|
c#|-0-0-0-0---0-0-|-0-0-0-0-0-0-0-0-|-0-0-0-0---0-0-|-0-0-0-0-0-0-0-0-|-2--------|





************************************

| /   slide up
| \   slide down
| h   hammer-on
| p   pull-off
| ~   vibrato
| +   harmonic
| x   Mute note
| b   Bend
| pb  Pre-bend
| br  Bend release
| pbr Pre-bend release
| brb Bend release bend

************************************
Добавлено: 08.05.2016
Другие материалы по этой песне:
  • Аккорды и текст

Страница создана 08.05.2016
http://primanota.ru/oceans-divide/overcome-chords.htm
Привет, Гость.
Предлагаем пройти революционный курс по гитаре.
Подарок от PrimaNota.Ru, забирай!