PrimaNota.ru - самый крупный в мире бесплатный архив песенных текстов, аккордов, табулатур и нот


Oceans Divide - Broken And Sober - таба, видео

Регистрация Запомнить меня
Войти через:  Facebook Google Twitter Vk Yandex Mail.ru

Oceans Divide - Broken And Sober - таба, видео

Печатать
Просмотров: 94
-------------------------------------------------------------------------------
                             Broken And Sober - Oceans Divide
-------------------------------------------------------------------------------
If you have any suggestions let me know. ^^
Also check out my video: https://www.youtube.com/watch?v=mW6yP28zoqs :D
Tabbed by: Bart Baart
E-mail: DG.Cryard@gmail.com
Tuning: Drop B


[INTRO]
c#|-------------|------------|-------------|------------|
g#|-------------|------------|-------------|------------|
e |-------------|------------|-------------|------------|
b |-0--0--0--4--|---4--4--4--|-7--7--7--2--|---2--2--2--|
f#|-0--0--0--4--|---4--4--4--|-7--7--7--2--|---2--2--2--|
b |-0--0--0--4--|---4--4--4--|-7--7--7--2--|---2--2--2--| REPEAT 2X


[VERSE ONE]
Piano plays D#m, B, F# and C# two times.


[PRE-CHORUS]
c#|-----------|-----------|-------------|--------------|
g#|-----------|-----------|-------------|--------------|
e |-----------|-----------|-------------|--------------|
b |-4--4------|-2--2------|-0--0--0--0--|---0--7-7-7-7-|
f#|-4--4------|-2--2------|-0--0--0--0--|---0--7-7-7-7-|
b |-4--4------|-2--2------|-0--0--0--0--|---0--7-7-7-7-|

c#|-----------|-----------|-------------|--------------|
g#|-----------|-----------|-------------|--------------|
e |-----------|-----------|-------------|--------------|
b |-4--4------|-2--2------|-0--0--0--0--|---0--0-0-0-0-|
f#|-4--4------|-2--2------|-0--0--0--0--|---0--0-0-0-0-|
b |-4--4------|-2--2------|-0--0--0--0--|---0--0-0-0-0-|


[CHORUS]
c#|-------------|-------------|-------------|-------------|
g#|-------------|-------------|-------------|-------------|
e |-------------|-------------|-------------|-------------|
b |-7--7--7--7--|-7--7--7--7--|-2--2--2--2--|-2--2--2--2--|
f#|-7--7--7--7--|-7--7--7--7--|-2--2--2--2--|-2--2--2--2--|
b |-7--7--7--7--|-7--7--7--7--|-2--2--2--2--|-2--2--2--2--|

c#|-------------|-------------|-------------|-------------|
g#|-------------|-------------|-------------|-------------|
e |-------------|-------------|-------------|-------------|
b |-4--4--4--4--|-4--4--4--4--|-0--0--0--0--|-0--0--0--0--|
f#|-4--4--4--4--|-4--4--4--4--|-0--0--0--0--|-0--0--0--0--|
b |-4--4--4--4--|-4--4--4--4--|-0--0--0--0--|-0--0--0--0--| REPEAT 2X

c#|----------|
g#|----------|
e |----------|
b |-0--------|
f#|-0--------|
b |-0--------| END LIKE THIS

[VERSE ONE]
Piano plays again.


[PRE-CHORUS]
Just play the pre-chorus like before.


[CHORUS]
Play the chorus like before, but after you repeated the first two lines continue with the bridge. So just like
this.
c#|-------------|-------------|-------------|-------------|
g#|-------------|-------------|-------------|-------------|
e |-------------|-------------|-------------|-------------|
b |-7--7--7--7--|-7--7--7--7--|-2--2--2--2--|-2--2--2--2--|
f#|-7--7--7--7--|-7--7--7--7--|-2--2--2--2--|-2--2--2--2--|
b |-7--7--7--7--|-7--7--7--7--|-2--2--2--2--|-2--2--2--2--|

c#|-------------|-------------|-------------|-------------|
g#|-------------|-------------|-------------|-------------|
e |-------------|-------------|-------------|-------------|
b |-4--4--4--4--|-4--4--4--4--|-0--0--0--0--|-0--0--0--0--|
f#|-4--4--4--4--|-4--4--4--4--|-0--0--0--0--|-0--0--0--0--|
b |-4--4--4--4--|-4--4--4--4--|-0--0--0--0--|-0--0--0--0--| REPEAT 2X


[BRIDGE]
c#|-------------|-------------|-------------|-------------|
g#|-------------|-------------|-------------|-------------|
e |-------------|-------------|-------------|-------------|
b |-7--7--7--7--|-7--7--7--7--|-2--2--2--2--|-2--2--2--2--|
f#|-7--7--7--7--|-7--7--7--7--|-2--2--2--2--|-2--2--2--2--|
b |-7--7--7--7--|-7--7--7--7--|-2--2--2--2--|-2--2--2--2--|

c#|-------------|-------------|-------------|-------------|
g#|-------------|-------------|-------------|-------------|
e |-------------|-------------|-------------|-------------|
b |-4--4--4--4--|-4--4--4--4--|-7--7--7--7--|-7--7--7--7--|
f#|-4--4--4--4--|-4--4--4--4--|-7--7--7--7--|-7--7--7--7--|
b |-4--4--4--4--|-4--4--4--4--|-7--7--7--7--|-7--7--7--7--|

c#|-------------|-------------|-------------|-------------|
g#|-------------|-------------|-------------|-------------|
e |-------------|-------------|-------------|-------------|
b |-0--0--0--0--|-0--0--0--0--|-2--2--2--2--|-2--2--2--2--|
f#|-0--0--0--0--|-0--0--0--0--|-2--2--2--2--|-2--2--2--2--|
b |-0--0--0--0--|-0--0--0--0--|-2--2--2--2--|-2--2--2--2--|

c#|-------------|-------------|-------------|-------------|
g#|-------------|-------------|-------------|-------------|
e |-------------|-------------|-------------|-------------|
b |-4--4--4--4--|-4--4--4--4--|-7--7--7--7--|-7--7--7--7--|
f#|-4--4--4--4--|-4--4--4--4--|-7--7--7--7--|-7--7--7--7--|
b |-4--4--4--4--|-4--4--4--4--|-7--7--7--7--|-7--7--7--7--|

c#|-------------|-------------|-------------|-------------|
g#|-------------|-------------|-------------|-------------|
e |-------------|-------------|-------------|-------------|
b |-0--0--0--0--|-0--0--0--0--|-2--2--2--2--|-2--2--2--2--|
f#|-0--0--0--0--|-0--0--0--0--|-2--2--2--2--|-2--2--2--2--|
b |-0--0--0--0--|-0--0--0--0--|-2--2--2--2--|-2--2--2--2--|


[PRE-CHORUS]
Just play like before


[CHORUS]
Play like how you played it for the second time. (so without ending)


[OUTRO]
c#|----------|
g#|----------|
e |----------|
b |-7--------|
f#|-7--------|
b |-7--------|





************************************

| /   slide up
| \   slide down
| h   hammer-on
| p   pull-off
| ~   vibrato
| +   harmonic
| x   Mute note
| b   Bend
| pb  Pre-bend
| br  Bend release
| pbr Pre-bend release
| brb Bend release bend

************************************
Добавлено: 08.05.2016
Вам также может быть интересно:
Другие материалы по этой песне:
  • Аккорды и текст

Страница создана 08.05.2016
http://primanota.ru/oceans-divide/broken-and-sober-chords.htm
Привет, Гость.
Предлагаем пройти революционный курс по гитаре.
Подарок от PrimaNota.Ru, забирай!