PrimaNota.ru - самый крупный в мире бесплатный архив песенных текстов, аккордов, табулатур и нот


Oceans Divide - Barely Alive - текст песни, таба, видео

Регистрация Запомнить меня
Войти через:  Facebook Google Twitter Vk Yandex Mail.ru

Oceans Divide - Barely Alive - текст песни, таба, видео

Печатать
Просмотров: 210
-------------------------------------------------------------------------------
                           Barely Alive - Oceans Divide
-------------------------------------------------------------------------------
Tabbed by: Bart Baart
E-mail: DG.Cryard@gmail.com
If you have any suggestions please, let me know.

Tuning: Drop B


[INTRO]
c#|--------------|--------------|-------------|--------------|--------------|-------------|
g#|--------------|--------------|-------------|--------------|--------------|-------------|
e |--------------|--------------|-------------|--------------|--------------|-------------|
b |-10-0-0-0-0-0-|-10-0-0-0-0-0-|-7-7-5-5-3-3-|-10-0-0-0-0-0-|-10-0-0-0-0-0-|-8-8-8-8-8-8-|
f#|-10-0-0-0-0-0-|-10-0-0-0-0-0-|-7-7-5-5-3-3-|-10-0-0-0-0-0-|-10-0-0-0-0-0-|-8-8-8-8-8-8-|
b |-10-0-0-0-0-0-|-10-0-0-0-0-0-|-7-7-5-5-3-3-|-10-0-0-0-0-0-|-10-0-0-0-0-0-|-8-8-8-8-8-8-|

c#|--------------|--------------|-------------|-------------|-------------------|-------------|
g#|--------------|--------------|-------------|-------------|-------------------|-------------|
e |--------------|--------------|-------------|-------------|-------------------|-------------|
b |-10-0-0-0-0-0-|-10-0-0-0-0-0-|-7-7-5-5-3-3-|-8-8-8-8-8-8-|-10-10-10-10-10-10-|-7-7-5-5-3-3-|
f#|-10-0-0-0-0-0-|-10-0-0-0-0-0-|-7-7-5-5-3-3-|-8-8-8-8-8-8-|-10-10-10-10-10-10-|-7-7-5-5-3-3-|
b |-10-0-0-0-0-0-|-10-0-0-0-0-0-|-7-7-5-5-3-3-|-8-8-8-8-8-8-|-10-10-10-10-10-10-|-7-7-5-5-3-3-| REPEAT 1X

c#|-----|
g#|-----|
e |-----|
b |--0--|
f#|--0--|
b |--0--| (okay this part after you repeated the lines above)


[VERSE ONE]
keep silence


[PRE-CHORUS]
c#|-------------------|-------------|-------------|
g#|-------------------|-------------|-------------|
e |-------------------|-------------|-------------|
b |-10-10-10-10-10-10-|-8-8-8-8-8-8-|-7-7-7-7-7-7-|
f#|-10-10-10-10-10-10-|-8-8-8-8-8-8-|-7-7-7-7-7-7-|
b |-10-10-10-10-10-10-|-8-8-8-8-8-8-|-7-7-7-7-7-7-| REPEAT 2X

c#|-------------|-------------------|
g#|-------------|-------------------|
e |-------------|-------------------|
b |-8-8-8-8-8-8-|-10-10-10-10-10-10-|
f#|-8-8-8-8-8-8-|-10-10-10-10-10-10-|
b |-8-8-8-8-8-8-|-10-10-10-10-10-10-|


[CHORUS]
c#|-----------|-----------|-----------|-----------|-----------|-----------|
g#|-----------|-----------|-----------|-----------|-----------|-----------|
e |-----------|-----------|-----------|-----------|-----------|-----------|
b |--0--0--0--|-0-0--0-0--|-0--0-12---|--3--3--3--|-3-3--3-3--|-3--3-15---|
f#|--0--0--0--|-0-0--0-0--|-0--0-12---|--3--3--3--|-3-3--3-3--|-3--3-15---|
b |--0--0--0--|-0-0--0-0--|-0--0-12---|--3--3--3--|-3-3--3-3--|-3--3-15---|

c#|--------------|---------------|-------------|-----------|-----------|----------|
g#|--------------|---------------|-------------|-----------|-----------|----------|
e |--------------|---------------|-------------|-----------|-----------|----------|
b |--10--10--10--|-10-10--10-10--|-10--10-10---|--5--5--5--|-5-5--5-5--|-5--5-5---|
f#|--10--10--10--|-10-10--10-10--|-10--10-10---|--5--5--5--|-5-5--5-5--|-5--5-5---|
b |--10--10--10--|-10-10--10-10--|-10--10-10---|--5--5--5--|-5-5--5-5--|-5--5-5---| REPEAT 2X


[VERSE TWO] (similar to intro)
c#|--------------|--------------|-------------|--------------|--------------|-------------|
g#|--------------|--------------|-------------|--------------|--------------|-------------|
e |--------------|--------------|-------------|--------------|--------------|-------------|
b |-10-0-0-0-0-0-|-10-0-0-0-0-0-|-7-7-5-5-3-3-|-10-0-0-0-0-0-|-10-0-0-0-0-0-|-8-8-8-8-8-8-|
f#|-10-0-0-0-0-0-|-10-0-0-0-0-0-|-7-7-5-5-3-3-|-10-0-0-0-0-0-|-10-0-0-0-0-0-|-8-8-8-8-8-8-|
b |-10-0-0-0-0-0-|-10-0-0-0-0-0-|-7-7-5-5-3-3-|-10-0-0-0-0-0-|-10-0-0-0-0-0-|-8-8-8-8-8-8-|

c#|--------------|--------------|-------------|-------------|-------------------|-------------|---|
g#|--------------|--------------|-------------|-------------|-------------------|-------------|---|
e |--------------|--------------|-------------|-------------|-------------------|-------------|---|
b |-10-0-0-0-0-0-|-10-0-0-0-0-0-|-7-7-5-5-3-3-|-8-8-8-8-8-8-|-10-10-10-10-10-10-|-7-7-5-5-3-3-|-0-|
f#|-10-0-0-0-0-0-|-10-0-0-0-0-0-|-7-7-5-5-3-3-|-8-8-8-8-8-8-|-10-10-10-10-10-10-|-7-7-5-5-3-3-|-0-|
b |-10-0-0-0-0-0-|-10-0-0-0-0-0-|-7-7-5-5-3-3-|-8-8-8-8-8-8-|-10-10-10-10-10-10-|-7-7-5-5-3-3-|-0-|


[VERSE ONE]
keep silence



[PRE-CHORUS]
Just play the pre-chorus like before


[CHORUS]
Just play the chorus like before

[BRIDGE]
c#|--------|----------|--------|--------|----------|--------|
g#|--------|----------|--------|--------|----------|--------|
e |--------|----------|--------|--------|----------|--------|
b |-8------|-8-8-8----|-8------|-5------|-5-5-5----|-5------|
f#|-8------|-8-8-8----|-8------|-5------|-5-5-5----|-5------|
b |-8------|-8-8-8----|-8------|-5------|-5-5-5----|-5------|

c#|--------|----------|--------|---------|---------------|-----------|
g#|--------|----------|--------|---------|---------------|-----------|
e |--------|----------|--------|---------|---------------|-----------|
b |-8------|-8-8-8----|-8------|-10------|-10-10-10--10--|-10--10----|
f#|-8------|-8-8-8----|-8------|-10------|-10-10-10--10--|-10--10----|
b |-8------|-8-8-8----|-8------|-10------|-10-10-10--10--|-10--10----|


[VERSE TWO] (no pre-chorus; play the chorus right away)
just play verse two like before


[CHORUS]
just play the chorus like before


[OUTRO]
c#|--------------|--------------|-------------|--------------|--------------|-------------|
g#|--------------|--------------|-------------|--------------|--------------|-------------|
e |--------------|--------------|-------------|--------------|--------------|-------------|
b |-10-0-0-0-0-0-|-10-0-0-0-0-0-|-7-7-5-5-3-3-|-10-0-0-0-0-0-|-10-0-0-0-0-0-|-8-8-8-8-8-8-|
f#|-10-0-0-0-0-0-|-10-0-0-0-0-0-|-7-7-5-5-3-3-|-10-0-0-0-0-0-|-10-0-0-0-0-0-|-8-8-8-8-8-8-|
b |-10-0-0-0-0-0-|-10-0-0-0-0-0-|-7-7-5-5-3-3-|-10-0-0-0-0-0-|-10-0-0-0-0-0-|-8-8-8-8-8-8-|

c#|--------------|--------------|-------------|-------------|-------------------|-------------|----|
g#|--------------|--------------|-------------|-------------|-------------------|-------------|----|
e |--------------|--------------|-------------|-------------|-------------------|-------------|----|
b |-10-0-0-0-0-0-|-10-0-0-0-0-0-|-7-7-5-5-3-3-|-8-8-8-8-8-8-|-10-10-10-10-10-10-|-7-7-5-5-3-3-|-3--|
f#|-10-0-0-0-0-0-|-10-0-0-0-0-0-|-7-7-5-5-3-3-|-8-8-8-8-8-8-|-10-10-10-10-10-10-|-7-7-5-5-3-3-|-3--|
b |-10-0-0-0-0-0-|-10-0-0-0-0-0-|-7-7-5-5-3-3-|-8-8-8-8-8-8-|-10-10-10-10-10-10-|-7-7-5-5-3-3-|-3--|


Thanks to riffstation: http://play.riffstation.com/?v=vBHUUphXz3M
I also have a video: https://www.youtube.com/watch?v=PWdBdGBQgws



************************************

| /   slide up
| \   slide down
| h   hammer-on
| p   pull-off
| ~   vibrato
| +   harmonic
| x   Mute note
| b   Bend
| pb  Pre-bend
| br  Bend release
| pbr Pre-bend release
| brb Bend release bend

************************************
Добавлено: 08.05.2016
Другие материалы по этой песне:
  • Аккорды и текст

Страница создана 23.09.2013
http://primanota.ru/oceans-divide/barely-alive-chords.htm
Привет, Гость.
Предлагаем пройти революционный курс по гитаре.
Подарок от PrimaNota.Ru, забирай!