PrimaNota.ru - самый крупный в мире бесплатный архив песенных текстов, аккордов, табулатур и нот


Ocean - Inertia - бас-таба, видео

Регистрация Запомнить меня
Войти через:  Facebook Google Twitter Vk Yandex Mail.ru

Ocean - Inertia - бас-таба, видео

Печатать
Просмотров: 65
BAND: The Ocean Collective    SONG: Inertia  ALBUM: Aeolian (2005)


Intro: all triplets

G---333---666666-333333------333----333333---------------333-------------|
D------333-------------333333----333------------------------333----------|
A------------------------------------------111333444333--------111-------|
E-----------------------------------------------------------------444222-|
B------------------------------------------------------------------------|

G-333---------------------|
D----333---333------------|
A-------444--------1-----1| all that x2,and in the end of the second part -->
E---------------222---222-|
B-------------------------|

instead of do do this,do that: G--------|
                               D--------|
                               A----000-|
                               E-111----|
                               B--------|

then begins the deep growl part

G---------3-------------3---------------------------------------------333----|
D----------3-------------3-----------------------------------------000---333-|
A-1----0----1--3-2--------1-4------1-------2----2--1---------1--111----------|
E--1----2----------4-1--------4-1---1---111--111----1----0----1--------------|
B---2--------------------------------2---------------2----1----2-------------|

G------1---3--------------------|
D--3--3-3---3-------------------|
A-1-1--------4-1-----4443-3-----|
E-----------------013----4--431-|
B----------------1--------------|

after deep growl part,starts symphonic/melodic part

G---------------------------------------68---|
D-6p888-------6p888-------6p888-------66-----|
A------888888------888888------888888--------|
E-----------------------------------------11-|
B--------------------------------------------|

G-----------------------------------------|
D-----------888------888------------------|
A-111/888888---888888---888888\1111111111-|
E-----------------------------------------|
B-----------------------------------------|
                               11 fret,faster

G-------------------------------------------|
D-888------888------888---------6/10\6/10\--|
A----888888---888888---888888-3/------------|
E-------------------------------------------|
B-------------------------------------------|


Haven't figured out the rest,sorry guys,hope that will serve you.
xGIAMMAx
Добавлено: 19.02.2016
Вам также может быть интересно:
Другие материалы по этой песне:
  • Аккорды и текст

Страница создана 19.02.2016
http://primanota.ru/ocean/inertia-chords.htm
Привет, Гость.
Предлагаем пройти революционный курс по гитаре.
Подарок от PrimaNota.Ru, забирай!