PrimaNota.ru - самый крупный в мире бесплатный архив песенных текстов, аккордов, табулатур и нот


Ocean - The Grand Inquisitor Ii - Roots & Locusts - таба, видео

Регистрация Запомнить меня
Войти через:  Facebook Google Twitter Vk Yandex Mail.ru

Ocean - The Grand Inquisitor Ii - Roots & Locusts - таба, видео

Печатать
Просмотров: 82
---------------------------------------------------------------
The Grand Inquisitor II: Roots & Locusts - The Ocean Collective
From the 2010 album 'Anthropocentric'
Tuning: DGCFAD (Full step down / D Standard)

Tabbed by Dabog701
Email: dabog701 at gmail dot com
---------------------------------------------------------------

NOTE:
***** If you see 'etc' next to a note in this tab,
it just means I didn't want to have to count
the exact amount of times the note is played,
so just play it as many times as is required,
you'll know what to do if you know the song anyway. *****




[Intro (0:00 - 0:28)]

d|--------------------------|
A|--------------------------|
F|--------------------------|
C|---7------6------3--------|
G|---7------7------3--------|
D|---5-etc--4-etc--1-etc----|

d|---------------------------------------------------------------------|
A|---------------------------------------------------------------------|
F|------------------------14-14-14-------------------------------------|
C|---------------------------------10-10-------------------------------|
G|---3p0---------7-----------------------11-11s7-7p0-------------------|
D|-------4p0-4s7---8-7-5-----------------------------7p0-7p0-7-8-7-5---| x2


[Section I (0:28 - 0:45)]

d|---0------0------13--------------0--0--0--0--0-0-0-0----------|
A|--10-etc--9-etc--10-etc---------10-10-10-10--9-9-9-9----------|
F|--------------------------------------------------------------|
C|--------------------------------------------------------------|
G|--------------------------------------------------------------|
D|--------------------------------------------------------------|

d|--------------------------------------------------------------------|
A|--------------------------------------------------------------------|
F|--------------------------------------------------------------------|
C|--------------------------------------------------------------------|
G|--------------------------------------------------------------------|
D|--12etc---1etc---3etc----------8-8-8-8--7-7-7-7---------------------|


[Section II (0:45 - 1:01)]

d|--------------------------------------------------------------------|
A|--------------------------------------------------------------------|
F|--------------------------------------------------------------------|
C|-----------------7--------------------------------------------------|
G|-------------5---------------------6h7------------------------------|
D|---5-5-5-8-5---5---5-5-5-5-5-5-5-5-----5-8-5-7-5-8-5-5-5-5-5-5-5-5--|

d|--------------------------------------------------------------------|
A|--------------------------------------------------10----10----10----|
F|--------------------------------------------------12b14-12b14-12b14-|
C|-----------------7------------------------7-------------------------|
G|-------------5----------------------3-3-3---------------------------|
D|---5-5-5-8-5---5---5-5-5-5-5-5-5-5----------4-4---------------------|

d|--------------------------------------------------------------------|
A|---12----13-------------------18-18--18-18-18-----------------------|
F|---14b16-15b17---14-14-13-13--14-14--14-14-14--13-------------------|
C|-----------------14-14-14-14--14-14--14-14-14--14-------------------|
G|--------------------------------------------------------------------|
D|--------------------------------------------------------------------|

d|---------12----------------15----------15---------------------------|
A|------13----13----------13----13----13------------------------------|
F|---14----------14----14----------14--------14-14-14-14--13-13-13-13-|
C|------------------15-----------------------14-14-14-14--14-14-14-14-|
G|--------------------------------------------------------------------|
D|--------------------------------------------------------------------|


[Section III (1:02 - 1:18)]

d|--------------------------------------------------------------------|
A|---13-13-13-13--13--13--------16-16-16-16--16-----------------------|
F|---14-14-14-14--14--14-etc----17-17-17-17--17-----------------------|
C|--------------------------------------------------------------------|
G|--------------------------------------------------------------------|
D|--------------------------------------------------------------------|

d|--------------------------------------------------------------------|
A|---12-12-12-12s13-13s15-15------------------------------------------|
F|--------------------------------------------------------------------|
C|----9--9--9--9s10-10s12-12------------------------------------------|
G|--------------------------------------------------------------------|
D|--------------------------------------------------------------------|

d|-----------------------------------0--------------------------------|
A|---13-13-13-13--13--13-------------0---12----13----12---------------|
F|---14-14-14-14--14--14-etc---0-0-0---0-14b16-15b17-14b16------------|
C|--------------------------------------------------------------------|
G|--------------------------------------------------------------------|
D|--------------------------------------------------------------------| X2



[Section IV (1:18 - 1:28)]

d|--------------------------------------------------------------------|
A|--------------------------------------------------------------------|
F|---12-12-12-12-12s14-14-14------------------------------------------|
C|--------------------------------------------------------------------|
G|---10-10-10-10-10s12-12-12------------------------------------------|
D|--------------------------------------------------------------------|

d|--------------------------------------------------------------------|
A|--------------------------------------------------------------------|
F|--------------------------------------------------------------------|
C|--------------------------------------------------------------------|
G|--------------------------------------------------------------------|
D|---5etc---7etc---8etc---1etc--8-8-8-8-7-7-7-7-----------------------|


[Section V (1:28 - 1:56)]

d|--------------------------------------------------------------------|
A|--------------------------------------------------------------------|
F|---7--------5-------------------------------------------------------|
C|---7--------5-------------------------------------------------------|
G|---5--------3-(x9)---3p0-7p0-3p0------------------------------------|
D|---5-(x12)----------------------------------------------------------|

d|-------------0----0---0-0-0-0---------------------------------------|
A|-------------5etc-6p5-5-5-5-5---------------------------------------|
F|---7----------------------------------------------------------------|
C|---7----------------------------------------------------------------|
G|---5----------------------------------------------------------------|
D|---5-(x12)----------------------------------------------------------|

d|--------------------------------------------------------------------|
A|------------------------------------------------12-12-12-12--12-----|
F|---7-----------------7---------12s13-13-13--13--13-13-13-13--13-----|
C|---7--------7--------7---------13s14-14-14--14----------------------|
G|---5--------7--------5----------------------------------------------|
D|---5-(x12)--5-(x12)--5-(x12)----------------------------------------|

d|--------------------12-12-12-12--12---------------------------------|
A|---13-13-13-13--13--13-13-13-13--13---12----------------------------|
F|---14-14-14-14--14--------------------13etc-------------------------|
C|--------------------------------------------------------------------|
G|--------------------------------------------------------------------|
D|--------------------------------------------------------------------|

[Chorus (1:56 - 2:22)]
d|------------------------|
A|------------------------|
F|---10-------------------|
C|---10------7------------|
G|----8------7------------|
D|----8-etc--5-etc--------| x3


d|------------------------|
A|-----------12-----15----|
F|---10------13etc--16etc-|
C|---10-------------------|
G|----8-------------------|
D|----8-etc---------------|


[Section VI (2:23 - 2:37)]

d|--------------------------------------------------------------------|
A|--------------------------------------------------------------------|
F|--------------------------------------------------------------------|
C|---7-7--7-7--7-7--7-7--7-7--7-7--7-7--10-9-6------------------------|
G|---x-x--x-x--x-x--x-x--x-x--x-x--x-x---x-x-x------------------------|
D|---5-5--5-5--5-5--5-5--5-5--5-5--5-5---8-7-4------------------------|

d|--------------------------------------------------------------------|
A|--10-----9------18------13-13-13-13--12-12-12-12--------------------|
F|---9-----9------19------14-14-14-14--13-13-13-13--------------------|
C|---7-etc-7-etc--19--------------------------------------------------|
G|----------------17-etc----------------------------------------------|
D|--------------------------------------------------------------------|


[Repeat Section III here, but end it with the following: ]
(2:37 - 2:56)

d|---------0----------------------------------------------------------|
A|---------0----12----13----12-----15----17---------------------------|
F|---0-0-0---0--14b16-15b17-14b16--17b19-19b21------------------------|
C|--------------------------------------------------------------------|
G|--------------------------------------------------------------------|
D|--------------------------------------------------------------------|

d|---------------------------|
A|---------------------------|
F|---------------------------|
C|---9-9-9-9-10-12-12-12-----|
G|---------------------------|
D|---------------------------|


[Repeat Section V and the Chorus here (2:56 - 3:49)]


[Section VII (3:49 - 4:26)]

d|--------------------------------------------------------------------|
A|--------------------------------------------------------------------|
F|--------------------------------------------------------------------|
C|---7-7--7-7--7-7--7-7--7-7--7-7--7-7--10-9-6------------------------|
G|---x-x--x-x--x-x--x-x--x-x--x-x--x-x---x-x-x------------------------|
D|---5-5--5-5--5-5--5-5--5-5--5-5--5-5---8-7-4------------------------| x5


d|---------------------------------------------------------------------|
A|---------------------------------------------------------------------|
F|------------------------14-14-14-------------------------------------|
C|---------------------------------10-10-------------------------------|
G|---3p0---------7-----------------------11-11s7-7p0-------------------|
D|-------4p0-4s7---8-7-5-----------------------------7p0-7p0-7-8-7-5---|


Gtr. 2 harmony
d|---------------------------------------------------------------------|
A|------------------------13-13-13-------------------------------------|
F|----------------------------------9-9--------------------------------|
C|---------------------------------------10-10s7-7p0-------------------|
G|---------------------------------------------------5p0-5p0-5-7-5-3---|
D|---------------------------------------------------------------------|


[Section VIII (4:26 - 5:31)]

d|--------------------------------------------------------------------|
A|--------------------------------------------------------------------|
F|--------------------------------------------------------------------|
C|---7--7--7---7--7--7---6--6--6---6--6--6---3--3--3---3--3--3--------|
G|---7--7--7---7--7--7---7--7--7---7--7--7---3--3--3---3--3--3--------|
D|---5--5--5---5--5--5---4--4--4---4--4--4---1--1--1---1--1--1--------| x2

d|--------------------------------------------------------------------|
A|--------------------------------------------------------------------|
F|--------------------------------------------------------------------|
C|---7-7-7-7-------6-6-6-6-------3-3-3-3------------------------------|
G|---7-7-7-7-------7-7-7-7-------3-3-3-3------------------------------|
D|---5-5-5-5-(x4)--4-4-4-4-(x4)--1-1-1-1-(x4)-------------------------|


These notes are played very quietly in the background while the other guitar guitar 
plays the above chords.

d|--------------------------------------------------------------------|
A|-----12-----13--12-----12----13--12---------------------------------|
F|---9----9------------9----9----------9------------------------------|
C|--------------------------------------------------------------------|
G|--------------------------------------------------------------------|
D|--------------------------------------------------------------------|

d|---------7---------------------7------------------------------------|
A|--------------9-------------------9--9------------------------------|
F|---7--9----7-----9-------7--9-----------9---------------------------|
C|--------------------------------------------------------------------|
G|--------------------------------------------------------------------|
D|--------------------------------------------------------------------|

d|---------3---------------------3------------------------------------|
A|--------------------------------------------------------------------|
F|---5--4----5--5--4-------5--4-----5--5--4---------------------------|
C|--------------------------------------------------------------------|
G|--------------------------------------------------------------------|
D|--------------------------------------------------------------------|  x2

Section IX (5:31 - 5:40)]
d|-------------------------------|
A|-------------------------------|
F|-------------------------------|
C|-------------------------------|
G|-----5h7-5h7-5h7--8--7---------|
D|---0---------------------------|

d|--------------------------------------------------------------------|
A|--------------------------------------------------------------------|
F|--------------------------------------------------------------------|
C|--------------------------------------------------------------------|
G|---5h7-5h7-5h7-5h7--8--7---5h7-5h7-5h7-5h7--8--7--------------------|
D|--------------------------------------------------------------------|

d|--------------------------------------------------------------------|
A|--------------------------------------------------------------------|
F|--------------------------------------------------------------------|
C|--------------------------------------------------------------------|
G|---5h7-5h7-5h7-5h7--8--7--5-----------------------------------------|
D|--------------------------------------------------------------------|


[Repeat the Intro here, and afterward go straight into Section VI (5:31 - 6:33)]

The song ends like so:

d|------------------------|
A|------------------------|
F|------------------------|
C|---7--7---7---6-6-6-----|
G|---x--x---x---6-6-6-----|
D|---5--5---5---4-4-4-----|


I hope this tab helped, any questions or corrections, post 'em below!
Добавлено: 19.02.2016
Другие материалы по этой песне:
  • Аккорды и текст

Страница создана 19.02.2016
http://primanota.ru/ocean/grand-inquisitor-ii-roots-and-locusts-chords.htm
Привет, Гость.
Предлагаем пройти революционный курс по гитаре.
Подарок от PrimaNota.Ru, забирай!