PrimaNota.ru - самый крупный в мире бесплатный архив песенных текстов, аккордов, табулатур и нот


Ocean Colour Scene - On My Way - аккорды и текст, видео

Регистрация Запомнить меня
Войти через:  Facebook Google Twitter Vk Yandex Mail.ru

Ocean Colour Scene - On My Way - аккорды и текст, видео

Печатать
Просмотров: 105
Авторы: Simon Fowler, Steve Cradock, Oscar Harrison, Damon Minchella

On My Way
Ocean Colour Scene
Ocean Colour Scene
------------------

On My Way from North Atlantic Drift

Transcribed by Peter Pearson (peter@lab6.com).

Cracking song, got to be played on a LP for full effect :)


Listen to song for the timings.

Intro:
------

Palm mute power chords slightly for chopping sound

Played 4 tims in intro


e:------------------
B:---------7--7--7--
G:---765---5--5--5--
D:-7----7--7--7--7--
A:---------5--5--5--
E:------------------

Main verse:
-----------

Sounds like D7 chord is sometimes changed to a simple
D once or twice in the middle of the song.


           Father forgive...

e:---------------------------------------------
B:---------7--7--7-----------------------------
G:---765---5--5--5---------------765-----------
D:-7----7--7--7--7-------------7----7----------
A:---------5--5--5-----------------------------
E:---------------------------------------------

           (slide up)             

e:-----------------3--3--3----------------------
B:-5--5--5----8----3--3--3--------7--7--7-------
G:-5--5--5-/-9-----4--4--4-456----5--5--5-------
D:-5--5--5-----10--5--5--5--------7--7--7-------
A:-3--3--3---------5--5--5--------5--5--5-------
E:----------------------------------------------

Repeat again.

Chorus:
-------

Just barre chords played once:


              C    G
And I'm on my way........
        D
to the next town.
              C    G
And I'm on my way........
        D
In a hurry.

              C    G
And I'm on my way........
        D
my down and .....
              C    G
And I'm on my way........
        D
don't worry.


Intro riff played twice then back to verse.


Middle: (after the second chorus)
-------

C
Take me alive.......
           D
Take me tonight.....
C
Take me....
            A
this time tomorrow...


---------------------------------------
     
Добавлено: 20.06.2013
Другие материалы по этой песне:
  • Аккорды и текст

Страница создана 03.04.2012
http://primanota.ru/ocean-colour-scene/on-my-way-chords.htm
Привет, Гость.
Предлагаем пройти революционный курс по гитаре.
Подарок от PrimaNota.Ru, забирай!