PrimaNota.ru - самый крупный в мире бесплатный архив песенных текстов, аккордов, табулатур и нот


Ocean Colour Scene - All Up - аккорды и текст, таба, бас-таба, видео

Регистрация Запомнить меня
Войти через:  Facebook Google Twitter Vk Yandex Mail.ru

Ocean Colour Scene - All Up - аккорды и текст, таба, бас-таба, видео

Печатать
Просмотров: 155
Авторы: Simon Fowler, Steve Cradock, Oscar Harrison, Damon Minchella

All Up
Ocean Colour Scene
		   [Cm]
Guitar 1   -   Bass arr. for Guitar

|-----------------|----------------|--------------
|-----------------|----------------|--------------
|-----------------|----------------|--------------
|-----------------|-1--------------|--------------
|--3---1-3----1-3-|---3-1------1---|-3---1-3----1-
|----3------3-----|-------1--3---3-|---3------3---


                            Cm             Eb  F
                 Guitar 2   -   Electric

|---|------------------||----8---8----x-|---------
|---|------------------||*---8---8----x-|--8---10-
|---|------------------||----8---8----x-|--8---10-
|---|-1----------------||---10--10----x-|--8---10-
|-3-|---3-1------1-----||*--10--10----x-|--6----8-
|---|-------1--3---3---||---------------|---------


          Cm               Eb  F              Cm


|-------|--8----8-----x--|----------------||---8-
|---10--|--8----8-----x--|-8---10----10--*||---8-
|---10--|--8----8-----x--|-8---10----10---||---8-
|---10--|-10---10-----x--|-8---10----10---||--10-
|----8--|-10---10-----x--|-6----8-----8--*||--10-
|-------|----------------|----------------||-----



    Guitar 1

|--------------|---------------|--------------|---
|--------------|---------------|--------------|---
|--------------|---------------|--------------|---
|--------------|---------------|--------------|---
|----------1---|-3---------1---|-3--------1---|-3-
|------1h3---3-|-------1h3---3-|------1h3---3-|---


                        Cm              Eb      F
       Guitar 3   -   Pno. arr. for guitar

|----------------|--||----------------|-----------
|----------------|--||*---8-----------|-----------
|----------------|--||------10-8------|---------8-
|----------------|--||-----------10-8-|-10-8-10---
|----------1---1-|--||*---------------|-----------
|-0-1-2/h3---3---|--||----------------|-----------


               Cm                 Eb      F


|------------|------------------|----------------||-
|------------|-----8------------|---------------*||-
|--10h8------|--------10-8------|---------8------||-
|-------10-8-|--10---------10-8-|-10-8-10--------||-
|------------|------------------|---------------*||-
|------------|------------------|----------------||-


        Cm      Eb F      Cm      Eb  F
     Guitar 2    Guitar 4 (electric) with distortion

|--||---------|--------|--------|----------------
|--||*--------|--------|--------|----------------
|--||---------|--------|--------|--------x-0-6b8-
|--||---------|--------|--------|----------------
|--||*--------|--------|--------|----------------
|--||---------|--------|--------|----------------


  Ab                G               Cm


|-----------------|---------3-----|--------8-------
|---4-------------|---------------|--------8-11b13-
|-----6b8---r4----|-------------3-|------8---------
|--------------6--|-5h6-5-----5---|-5/10-----------
|-----------------|---------------|----------------
|-----------------|---------------|----------------


                        Ab            G


|---8-11-------|-----------------8\-|-7---7----|-
|--------11b13-|--------------------|----------|-
|--------------|------------5/8---\-|-7--------|-
|--------------|-----x--------------|----------|-
|--------------|--------------------|----------|-
|--------------|--------------------|----------|-


 [Bb]                           Cm              Eb
Guitar 3

|--------------|-----------||-----------------|----
|--------------|-----------||*---8------------|----
|--------------|-----------||-------10-8------|----
|--------------|-----------||------------10-8-|-10-
|--1-1--1-1--1-|-----------||*----------------|----
|--------------|-----------||-----------------|----


       F              Cm                Eb      F


|-------------------|-----------------|-----------
|-------------------|-----8-----------|-----------
|------8--10h8------|-------10-8------|---------8-
|-8-10---------10-8-|--10--------10-8-|-10-8-10---
|-------------------|-----------------|-----------
|-------------------|-----------------|-----------


            Cm            Eb     F        Cm
Guitar 4       -       wah-wah

|-------||---8----8-----|---------------|--8----8-
|------*||---8----8-----|-8--8---10-----|--8----8-
|-------||---8----8-----|-8--8---10-----|--8----8-
|-------||--10---10-----|-8--8---10-----|-10---10-
|------*||--10---10-----|-6--6----8-----|-10---10-
|-------||--------------|---------------|---------


        Eb    F       Cm          Eb     F


|-----|----------------8---8----|---------------|-
|-----|----------------8---8----|-8--8---10-----|-
|-----|----------------8---8----|-8--8---10-----|-
|-----|---------------10--10----|-8--8---10-----|-
|-----|-6-5-6-6/-8----10--10----|-6--6----8-----|-
|-----|-------------------------|---------------|-


  Cm         N.C               Fm       Ab Bb


|--8---8----|----------------------1---|---------
|--8---8----|----------------------1---|---------
|--8---8----|----------------------1---|-----3-1-
|-10--10----|--------------------------|---------
|-10--10----|-3--3--4--5--6--7--x------|---------
|-----------|-------------------x------|---------


          Fm                  Ab       Bb


|-------|-------------------|--------------------
|-------|-------------------|------------11b13---
|-3b5---|-3b5---r-h1---1----|-x-8-8--8-8---------
|-------|------------3------|--------------------
|-------|-------------------|--------------------
|-------|-------------------|--------------------


      Cm           Eb      F                   Cm


|----------------|---------------------------|---
|-----8----------|----------11---------------|---
|--x----10-------|--10b12------10b12--r-8-10-|-8-
|--x--------8----|---------------------------|---
|----------------|---------------------------|---
|----------------|---------------------------|---


           Eb        F       Cm


|--------|---------------------------------------
|--------|-x--x-x--x-x--x-----8--8---8--8---8--8-
|--------|-x--x-x--x-x--x-----8--8---8--8---8--8-
|--10----|-x--x-x--x-x--x----10-10--10-10--10-10-
|--------|---------------------------------------
|--------|---------------------------------------



  echo repeat . . .

|-------------------|-----|---8b10----8--6--8h6-|-
|---8--8---8--8---8-|-----|---------------------|-
|---8--8---8--8---8-|-----|---------------------|-
|--10-10--10-10--10-|-----|---------------------|-
|-------------------|-----|---------------------|-
|-------------------|-----|---------------------|-


                 Cm              Eb      F
              Guitar 3

|-8----8\-|--||----------------|-----------------
|---------|--||*--8------------|-----------------
|---------|--||------10-8------|---------8--10h8-
|---------|--||-----------10-8-|-10-8-10---------
|---------|--||*---------------|-----------------
|---------|--||----------------|-----------------


          Cm                Eb      F        Ab
                                          Guitar 4

|------|------------------|--------------||------
|------|-----8------------|-------------*||--7b9-
|------|--------10-8------|---------8----||------
|-10-8-|--10---------10-8-|-10-8-10------||------
|------|------------------|-------------*||------
|------|------------------|--------------||------


                G             Cm


|---4---------|-------------|------3-------------
|-------4-----|-------------|-6b8----6b8--r-h4---
|---------4-4-|---4--4------|------------------5-
|-------------|---------5-5-|--------------------
|-------------|-------------|--------------------
|-------------|-------------|--------------------


                               Ab            Gm


|--------|------------------------4---x--3-|-----
|-4------|------------------------4---x--3-|-----
|---5--5-|---5-5-3-----------------------3-|-----
|--------|---------5h3-5-3h/5--6-----------|-----
|--------|---------------------------------|-----
|--------|---------------------------------|-----


 [Bb] Bb      B   Cm


|-----6-|-----7-|--8--*|-
|-----6-|-----7-|--8--*|-
|-----7-|-----8-|--8--*|-
|-------|-------|-10--*|-
|-------|-------|-----*|-
|-------|-------|-----*|-     
Добавлено: 20.06.2013
Другие материалы по этой песне:
  • Аккорды и текст

Страница создана 21.04.2012
http://primanota.ru/ocean-colour-scene/all-up-chords.htm
Привет, Гость.
Предлагаем пройти революционный курс по гитаре.
Подарок от PrimaNota.Ru, забирай!