PrimaNota.ru - самый крупный в мире бесплатный архив песенных текстов, аккордов, табулатур и нот


O.C. Supertones - Perseverence Of The Saints - текст песни, бас-таба, видео

Регистрация Запомнить меня
Войти через:  Facebook Google Twitter Vk Yandex Mail.ru

O.C. Supertones - Perseverence Of The Saints - текст песни, бас-таба, видео

Печатать
Просмотров: 92
Perseverance of the Saints
The OC Supertones       
Supertones Strike Back
tabbed by Mike Kunz    rmjk21@embarqmail.com

A true piece of bass art by Tony T. This sounds close,
listen to the recording for timing. Enjoy!  

intro
G|---------------|
D|---------------|
A|-7--9-9-9-9-9--|
E|---5-----------|

verse
G|------------------------------------------|
D|-------------5----------------------------|
A|-7-------5-7--7-5-7-7---------------------|
E|---7-5-7-------------7-5-7-3-2-3-5--------|

verse
G|-------------------------------------------|
D|-------------5------------------5----------|
A|-7-------5-7--7-5-7-7-------5-7---7-5-7----|
E|---7-5-7-------------7-5-7-7---------------|

chorus
G|---------------------------------|
D|---------------------------------|
A|-4-4-4-4---------2-2-2-2-0-0-0-0-|
E|---------0-0-0-0-----------------|

G|---------------------------------|
D|---------------------------------|
A|-4-4-4-4---------2-2-2-2-0-0-0-0-|
E|---------0-0-0-0-----------------


interlude
G|----------------------------------------------|
D|----------------------------------------------|
A|----------------------------------------------|
E|-5-5-0-5-6-6-5-5-0-5-5-0-5-6-6-8-8-8-8-7-7-7-7|


G|----------------------------------------------|
D|----------------------------------------------|
A|----------------------------------------------|
E|-5-5-0-5-6-6-5-5-0-5-5-0-5-6-6-8-8-8-8-7-7-7-7|

G|----------------------------------------------|
D|----------------------------------------------|
A|----------------------------------------------|
E|-5-5-0-5-6-6-5-5-0-5-5-0-5-6-6-8-8-8-8-7-7-7-7|

G|---------------|
D|---------------|
A|-7--9-9-9-9-9--|
E|---5-----------|

    Putting it together

    INTRO
    Verse
    Chorus
    Verse
    Chorus
    Interlude
    verse
    Chorus
    Chorus
Добавлено: 04.10.2013
Другие материалы по этой песне:
  • Аккорды и текст

Страница создана 19.07.2012
http://primanota.ru/oc-supertones-2/perseverence-of-the-saints-chords.htm
Привет, Гость.
Предлагаем пройти революционный курс по гитаре.
Подарок от PrimaNota.Ru, забирай!