PrimaNota.ru - самый крупный в мире бесплатный архив песенных текстов, аккордов, табулатур и нот


Observer Drift - Green Tea - таба, видео

Регистрация Запомнить меня
Войти через:  Facebook Google Twitter Vk Yandex Mail.ru

Observer Drift - Green Tea - таба, видео

Печатать
Просмотров: 105
dream pop from minnesota's observer drift, off the colored my heart red ep.

-=whole song=-

chords

E|--16--------------|
B|--17--/14--10--5--|
G|--18--/14--11--6--|
D|------/14--12--7--|
A|------------------|
E|------------------|

lead

E|---------------------------------------------------------|
B|---------10---------10---------10---------10---------10--|
G|------9----------9----------9----------9----------9------|
D|--11---------11---------11---------11---------11---------|
A|---------------------------------------------------------|
E|---------------------------------------------------------|

-=lyrics=-

don't tie me down

it's all around

i can feel it

it's coming through

i can see it

its color's true

let's make this day last

cause the summer has almost passed



don't slow down

i'm leaving town

for the summer

i'll be back

cause in december

it snows back down
Добавлено: 04.08.2015
Другие материалы по этой песне:
  • Аккорды и текст

Страница создана 04.08.2015
http://primanota.ru/observer-drift/green-tea-chords.htm
Привет, Гость.
Предлагаем пройти революционный курс по гитаре.
Подарок от PrimaNota.Ru, забирай!