PrimaNota.ru - самый крупный в мире бесплатный архив песенных текстов, аккордов, табулатур и нот


Obscura - Septuagint - бас-таба, видео

Регистрация Запомнить меня
Войти через:  Facebook Google Twitter Vk Yandex Mail.ru

Obscura - Septuagint - бас-таба, видео

Печатать
Просмотров: 250
Band: Obscura
Song: Septuagint
Album: Omnivium (2011)
Bassist: Jeroen Paul Thesseling
Tuning: D tuning
Tabbed by: ThrashMetalhead

Intro

A#|-----|
F |-----|
C |-----|
G |-3-5-|
D |-----|
A |-----|

A#|--------------|-----------------|
F |--------------|---------4-5-----|
C |--------------|-----------------|
G |-7--5--4--3-2-|----5--2-----3-5-|
D |--------------|-0---------------|
A |--------------|-----------------|

A#|--------------|-----------------|
F |--------------|---------4-5-----|
C |--------------|-----------------|
G |-7--5--4--3-2-|----5--2-----3---|
D |--------------|-0---------------|
A |--------------|---------------3-|

A#|--------------|-----------------|
F |--------------|---------4-5-----|
C |--------------|-----------------|
G |-7--5--4--3-2-|----5--2-----3-5-|
D |--------------|-0---------------|
A |--------------|-----------------|

A#|--------------|--------------|
F |--------------|--------------|
C |--------------|--------------|
G |--------------|--------------|
D |--------------|--------------|
A |-5--3--2--1-0-|-5--3--0--1-3-|

A#|--------------|------------------|
F |--------------|------------------|
C |--------------|------------------|
G |--------------|------------5-6-7-|
D |--------------|------------------|
A |-5--3--2--1-0-|-5--3--0--1-------|

A#|---------------------------------|
F |---------------------------------|
C |---------------------------------|
G |-6-6-7\--6-6-7---------------6-9-|
D |-----------------0-7-5-3-7-7-----|
A |---------------------------------|

Main Riff

A#|--------------------------|-----------------------------|
F |--------------------------|-----------------------------|
C |--------------------------|-----------------------------| x2
G |-7---10---9---6-6-6-------|-7---10---9---10-10-10-6-6-6-|
D |---0----0---0-------8-8-8-|---0----0---0----------------|
A |--------------------------|-----------------------------|

A#|---------------------------------|---------------------------------|
F |---------------------------------|---------------------------------|
C |---------------------------------|---------------------------------|
G |-7-7-7-7-7-7-7-7-6-6-6-6---------|-7-7-7-7-7-7-7-7---------6-6-6-6-|
D |-------------------------8-8-8-8-|-----------------8-8-8-8---------|
A |---------------------------------|---------------------------------|
  |
A#|--------------------------------------------------------------|
F |-----------------------------------------------------9-8------|
C |---------------------------------------------------------10-9-|
G |-7-7-7-7-7-7-7-7-6-6-6-6-------------------------5-6----------|
D |-------------------------8-8-8-8-8-8-8-8-8-8-8-8--------------|
A |--------------------------------------------------------------|

Verse 1

A#|--------------------------------------------|
F |-------------------------------------8------|
C |----------------------------10-9-7-9---10-9-|
G |-10-9---------------------7-----------------|
D |------0-0-0-0-8-7-0-0-0-0-------------------|
A |--------------------------------------------|
  |                                              x2
A#|------------------------------------------|
F |-----------------------------------8------|
C |--------------------------10-9-7-9---10-9-|
G |------------------------7-----------------|
D |-8-7-0-787-----0-0-0-0--------------------|
A |-----------8-7----------------------------|

A#|----------|
F |-9-8----8-|
C |-----10---|
G |----------|
D |----------|
A |----------|

A#|---------------------------------------------|
F |--------------------------------11/12\9/11\8-|
C |---------------------------------------------|
G |--------------------------------9-/10\7/9-\6-|
D |-000000000000000000000000000000--------------|
A |---------------------------------------------|
  |
A#|--------------------------------------------|
F |--------------------------------8/9\8/16\15-|
C |--------------------------------------------|
G |--------------------------------6/7\6/14\13-|
D |-000000000000000000000000000000-------------|
A |--------------------------------------------|
  |
A#|---------------------------------------------|
F |--------------------------------11/12\9/11\8-|
C |---------------------------------------------|
G |--------------------------------9-/10\7/9-\6-|
D |-000000000000000000000000000000--------------|
A |---------------------------------------------|

A#|----------------------------------------|
F |---------------------------------8------|
C |------------------------10-9-7-9---10-9-|
G |----------------------7-----------------|
D |-000000000000---8-7-5-------------------|
A |--------------5-------------------------|

Main Riff

A#|--------------------------|-----------------------------|
F |--------------------------|-----------------------------|
C |--------------------------|-----------------------------| x2
G |-7---10---9---6-6-6-------|-7---10---9---10-10-10-6-6-6-|
D |---0----0---0-------8-8-8-|---0----0---0----------------|
A |--------------------------|-----------------------------|

A#|---------------------------------|---------------------------------|
F |---------------------------------|---------------------------------|
C |---------------------------------|---------------------------------|
G |-7-7-7-7-7-7-7-7-6-6-6-6---------|-7-7-7-7-7-7-7-7---------6-6-6-6-|
D |-------------------------8-8-8-8-|-----------------8-8-8-8---------|
A |---------------------------------|---------------------------------|
  |
A#|-------------------------------------------------------|
F |-------------------------------------------------------|
C |-------------------------------------------------------|
G |-7-7-7-7-7-7-7-7-6-6-6-6-------------------------5-6-7-|
D |-------------------------8-8-8-8-8-8-8-8-8-8-8-8-------|
A |-------------------------------------------------------|

A#|---------------------------------|-------------------------------------|
F |---------------------------------|-------------------------------------|
C |---------------------------------|-------------------------------------|
G |-7---------2-2-2-2-2-2-2-2-3-3-5-|-7-----------------------3-3-3-5-5-5-|
D |---0-0-0-0-----------------------|---0-0-0-0-0-0-0-0-0-0-0-------------|
A |---------------------------------|-------------------------------------|

A#|-------------------------------------------|
F |-------------------------------------------|
C |-------------------------------------------|
G |-7---------7---------2-2-2-2-2-2-2-2-3-3-5-|
D |---0-0-0-0---0-0-0-0-----------------------|
A |-------------------------------------------|

A#|-------------------------------------|
F |-------------------------------------|
C |-------------------------------------|
G |-7-----------------------3-3-3-5-5-5-|
D |---0-0-0-0-0-0-0-0-0-0-0-------------|
A |-------------------------------------|

A#|---------------------------------------------|
F |---------------------------------------------|
C |---------------------------------------------|
G |-7---------------------2-2-2-2-2-2-2-2-3-3-5-|
D |---0-0-0-0-0-0-0-0-0-0-----------------------|
A |---------------------------------------------|
  |                                               x2
A#|-------------------------------------|
F |-------------------------------------|
C |-------------------------------------|
G |-7-----------------------3-3-3-5-5-5-|
D |---0-0-0-0-0-0-0-0-0-0-0-------------|
A |-------------------------------------|

A#|----------------|-------------|
F |----------------|-------------|
C |-----9-10-------|---7-9---5-7-|
G |---7------10----|-5-----------|
D |-0-----------10-|-------7-----|
A |----------------|-------------|
  |                                x2
A#|----------------|-------------|
F |----------------|-------------|
C |-----9-10-------|---------7-7-|
G |---7------10----|---5-7-------|
D |-0-----------10-|-0-----0-----|
A |----------------|-------------|

Bass solo

A#|---------------------------------------------11-12-14----------------------|
F |---9-11-12-11-9---------11---9-11-12-11-9-------------12-11-11-12-11-------|
C |----------------12------------------------12-------------------------14-12-|
G |---------------------10----------------------------------------------------|
D |-0-----------------8-------0-----------------------------------------------|
A |---------------------------------------------------------------------------|
  |
A#|----------------------------------------------------------------------|
F |------------12-12-14-12-11------------12/14-14-12----12----10----12---|
C |-------10------------------14-12---10-------------10----10------------|
G |----10---------------------------8----------------------------10----6-|
D |-10-------8-----------------------------------------------------------|
A |----------------------------------------------------------------------|

Clean Vocals

A#|--------------7---------------7-|
F |------9---------------9---------|
C |------------5---------------5---|
G |----7---------------7-----------|
D |-0---------------0--------------|
A |---------1---------------1------|
  |                                  x2
A#|-----------------------------|
F |------5----------------------|
C |-----------8-----3-----3-----|
G |----3------------------------|
D |---------6---6-1---1-1---3-7-|
A |-3---------------------------|

A#|--------------7---------------7-|
F |------9---------------9---------|
C |------------5---------------5---|
G |----7---------------7-----------|
D |-0---------------0--------------|
A |---------1---------------1------|
  |
A#|------------------------|
F |------5---------------4-|
C |-----------8------3-----|
G |----3-------------------|
D |---------6---6-1----3---|
A |-3----------------------|

A#|-------------------------------------|-----------------------------------|
F |-------------------------------9-----|-------------------------------9---|
C |---5-4-5-------------10---9------7---|---5-4-5-------------10---9------7-|
G |---------3---6-----7----7---10-----0-|---------3---6-----7----7---10-----|
D |-2---------5---8-0-------------------|-2---------5---8-0-----------------|
A |-------------------------------------|-----------------------------------|
  |
A#|-----------------------------|---------------------------|
F |-----------------------9-----|---------------------------|
C |-------------10---9------7---|---5-4-5-------------------|
G |-7-6-------7----7----------0-|---------0--7-6-7-0--7-6-6-|
D |-----8-7-0----------10-------|-2-------------------------|
A |-----------------------------|---------------------------|

Verse 2

A#|--------------------------------------------|
F |-------------------------------------8------|
C |----------------------------10-9-7-9---10-9-|
G |-10-9---------------------7-----------------|
D |------0-0-0-0-8-7-0-0-0-0-------------------|
A |--------------------------------------------|

A#|--------------------------------------------|
F |---------------------------------8-11-11-12-|
C |--------------------------10-9-7------------|
G |------------------------7-------------------|
D |-8-7-0-787-----0-0-0-0----------------------|
A |-----------8-7------------------------------|

A#|--------------------------------------------|
F |-------------------------------------8------|
C |----------------------------10-9-7-9---10-9-|
G |-10-9---------------------7-----------------|
D |------0-0-0-0-8-7-0-0-0-0-------------------|
A |--------------------------------------------|

A#|-------------------------------------|
F |-------------------------------------|
C |--------------------------10-9-7-----|
G |------------------------7--------3-6-|
D |-8-7-0-787-----0-0-0-0---------------|
A |-----------8-7-----------------------|

A#|-----------------------|
F |-----------------------|
C |-----------------------|
G |-----------------7p5h7-|
D |-0-0-0-0-0-0-0-0-------|
A |-----------------------|

A#|-------------------------------------|
F |-------------------------------------|
C |-------------------------------------| x4
G |-------------2-----3-5-7------2-/5-3-|
D |-0-0-0-0-0-0----0---------3-2--------|
A |-------------------------------------|

Guitar solo

A#|--------------------------|-----------------------------|
F |--------------------------|-----------------------------|
C |--------------------------|-----------------------------| x4
G |-7---10---9---6-6-6-------|-7---10---9---10-10-10-6-6-6-|
D |---0----0---0-------8-8-8-|---0----0---0----------------|
A |--------------------------|-----------------------------|

A#|--------------|--------------|--------------|--------------|
F |--------------|--------------|--------------|--------------|
C |--------------|--------------|--------------|--------------|
G |--------------|--------------|--------------|--------------|
D |--------------|--------------|--------------|-------6------|
A |-5--3--2--1-0-|-5--3--0--1-3-|-5--3--2--1-0-|-5--3-----1-1-|

A#|---------------------------------------------|
F |--------------------------------11/12\9/11\8-|
C |---------------------------------------------|
G |--------------------------------9-/10\7/9-\6-|
D |-000000000000000000000000000000--------------|
A |---------------------------------------------|
  |
A#|--------------------------------------------|
F |--------------------------------8/9\8/16\15-|
C |--------------------------------------------|
G |--------------------------------6/7\6/14\13-|
D |-000000000000000000000000000000-------------|
A |--------------------------------------------|
  |
A#|---------------------------------------------|
F |--------------------------------11/12\9/11\8-|
C |---------------------------------------------|
G |--------------------------------9-/10\7/9-\6-|
D |-000000000000000000000000000000--------------|
A |---------------------------------------------|

A#|----------------------------------------|
F |---------------------------------8------|
C |------------------------10-9-7-9---10-9-|
G |----------------------7-----------------|
D |-000000000000---8-7-5-------------------|
A |--------------5-------------------------|

Main Riff

A#|--------------------------|-----------------------------|
F |--------------------------|-----------------------------|
C |--------------------------|-----------------------------| x2
G |-7---10---9---6-6-6-------|-7---10---9---10-10-10-6-6-6-|
D |---0----0---0-------8-8-8-|---0----0---0----------------|
A |--------------------------|-----------------------------|

A#|---------------------------------|---------------------------------|
F |---------------------------------|---------------------------------|
C |---------------------------------|---------------------------------|
G |-7-7-7-7-7-7-7-7-6-6-6-6---------|-7-7-7-7-7-7-7-7---------6-6-6-6-|
D |-------------------------8-8-8-8-|-----------------8-8-8-8---------|
A |---------------------------------|---------------------------------|
  |
A#|----------------------------------------------------------------------|
F |----------------------------------------------------------------7h9p7-|
C |----------------------------------------------------------------------|
G |-7-7-7-7-7-7-7-7-6-6-6-6-------------------------5-6-7-7--7-7-7-------|
D |-------------------------8-8-8-8-8-8-8-8-8-8-8-8----------------------|
A |----------------------------------------------------------------------|

A#|------------------------------4-3-6-7-|
F |-9-8-9\-4-2----5\---------4-2---------|
C |------------5\----1-2-4-5-------------|
G |--------------------------------------|
D |--------------------------------------|
A |--------------------------------------|

Outro

A#|-------------------------------------|
F |-------------------------------------|
C |-------------------------------------| x2
G |-------------2-----3-5-7------2-/5-3-|
D |-0-0-0-0-0-0----0---------3-2--------|
A |-------------------------------------|

A#|-----------------|-----------------|--------------|----------------|
F |-----------------|-----------------|--------------|----------------|
C |-----------------|-----------------|--------------|----------------|
G |-7---3---7---3-5-|-7-----------5-3-|--------------|----------3h5p3-|
D |---7---5---0-----|---0-7---5-3-----|--------------|----------------|
A |-----------------|-------0---------|-5--1--5--1-4-|-5--1--0--------|

Legend
------
| / = slide up
| \ = slide down
| h = hammer-on
| p = pull-off
Добавлено: 03.11.2013
Другие материалы по этой песне:

Страница создана 29.06.2012
http://primanota.ru/obscura/septuagint-chords.htm
Привет, Гость.
Предлагаем пройти революционный курс по гитаре.
Подарок от PrimaNota.Ru, забирай!