PrimaNota.ru - самый крупный в мире бесплатный архив песенных текстов, аккордов, табулатур и нот


Obscura - Anticosmic Overload - таба, бас-таба, видео

Регистрация Запомнить меня
Войти через:  Facebook Google Twitter Vk Yandex Mail.ru

Obscura - Anticosmic Overload - таба, бас-таба, видео

Печатать
Просмотров: 307
Anticosmic Overload By Obscura


Lead L
Turning : D,A,F,C,G,D


----------------------|------------------------|---------------------|
--12------------14----|--15--------14----12----|--11~----------------|
----------------------|------------------------|---------------------|
----------------------|------------------------|---------------------|
----------------------|------------------------|---------------------|
----------------------|------------------------|---------------------|


--<>24----------------|------------------------------10s--11h--15p--11h--15h--|
--<>24----------------|--------------------------11---------------------------|
----------------------|----------------------12-------------------------------|
----------------------|----------8--12h--13-----------------------------------|
----------------------|------10-----------------------------------------------|
----------------------|--11---------------------------------------------------|


--18p--15p--11-------------------------------------------|
---------------------------------------------------------|
----------------15h--19p--15p--12------------------------|
-----------------------------------13p--12---------------|
--------------------------------------------13s--10------|
-----------------------------------------------------11--|


--------------------------------------------------------|
--------------------------------------------------------|
------------------------------------------11h--14h--18--|
----------------------------12p--11h--12----------------|
---------------9h--12h--16------------------------------|
--10p--9h--10-------------------------------------------|


----------------14h--17h--21p--17p--14h--17h--20p--17p--14--|
--15p--14h--15----------------------------------------------|
------------------------------------------------------------|
------------------------------------------------------------|
------------------------------------------------------------|
------------------------------------------------------------|


--24p--19p--15h--19p--15----------------------------------|
--------------------------17h--20p--17--------------------|
----------------------------------------16h--21p--16------|
------------------------------------------------------17--|
----------------------------------------------------------|
----------------------------------------------------------|


------------------------------------------------------------|
------------------------------------------------------------|
------------------------------------------------------------|
--21p--17---------------------------------------------------|
-----------19h--22p--19p--14h--19p--14h--19h--22p--19p--14--|
------------------------------------------------------------|


------------------14h--18h--21p--18p--14h--18p--14------|
--------------16------------------------------------16--|
----------15--------------------------------------------|
------16------------------------------------------------|
--18----------------------------------------------------|
--------------------------------------------------------|


----------------------------------------------------------|
--19p--16-------------------------------------------------|
-----------15h--20p--15-----------------------------------|
-------------------------16h--20p--16---------------------|
---------------------------------------18h--21p--18p--13--|
----------------------------------------------------------|


------------------15h--18h--22p--18p--15----------------|
--------------16--------------------------16p--15h--16--|
----------15--------------------------------------------|
------17------------------------------------------------|
--18----------------------------------------------------|
--------------------------------------------------------|


----------------------------------------------------------|
----------------------------------------------------------|
--19p--15p--12--------------------------------------------|
----------------13p--12h--13------------------------------|
------------------------------17p--13p--10----------------|
--------------------------------------------11p--10h--11--|


------------------------------|---------------------------8h--12--|
------------------------------|-----------------------10----------|
------------------------------|--------------------9--------------|
------------------------------|----------------10-----------------|
------------15--14--15--14----|--12--------12---------------------|
--15--------------------------|-----------------------------------|


--24p--19p--15------------------------------15h--19h--|
----------------17----------------------17------------|
--------------------16--------------16----------------|
------------------------17------17--------------------|
----------------------------19------------------------|
------------------------------------------------------|


--23p--14p--11------------------------------11h--14h--|
----------------12----------------------12------------|
--------------------11--------------11----------------|
------------------------13------13--------------------|
----------------------------14------------------------|
------------------------------------------------------|


--22p--15p--12------------------------------12h--15--|
----------------13----------------------13-----------|
--------------------12--------------12---------------|
------------------------14------14-------------------|
----------------------------15-----------------------|
-----------------------------------------------------|


------------------------------|------------------------|
----------------16~----17~----|--17~------------19~----|
--16~----17~------------------|------------------------|
------------------------------|------------------------|
------------------------------|------------------------|
------------------------------|------------------------|


---------------------------|------------------------|------------------------|
--20~--------19~----17~----|--17~------------19~----|--16~------------L--L\--|
---------------------------|------------------------|------------------------|
---------------------------|------------------------|------------------------|
---------------------------|------------------------|------------------------|
---------------------------|------------------------|------------------------|



Lead R
Turning : D,A,F,C,G,D


----------------------|--14--------------------|---------------------|
--16------------17----|------------17----16----|--14~----------------|
----------------------|------------------------|---------------------|
----------------------|------------------------|---------------------|
----------------------|------------------------|---------------------|
----------------------|------------------------|---------------------|


--<>24----------------|------------------------------10s--11h--15p--11h--15h--|
--<>24----------------|--------------------------11---------------------------|
----------------------|----------------------12-------------------------------|
----------------------|----------8--12h--13-----------------------------------|
----------------------|------10-----------------------------------------------|
----------------------|--11---------------------------------------------------|


--18p--15p--11-------------------------------------------|
---------------------------------------------------------|
----------------15h--19p--15p--12------------------------|
-----------------------------------13p--12---------------|
--------------------------------------------13s--10------|
-----------------------------------------------------11--|


--------------------------------------------------------|
--------------------------------------------------------|
------------------------------------------11h--14h--18--|
----------------------------12p--11h--12----------------|
---------------9h--12h--16------------------------------|
--10p--9h--10-------------------------------------------|


----------------14h--17h--21p--17p--14h--17h--20p--17p--14--|
--15p--14h--15----------------------------------------------|
------------------------------------------------------------|
------------------------------------------------------------|
------------------------------------------------------------|
------------------------------------------------------------|


--24p--19p--15h--19p--15----------------------------------|
--------------------------17h--20p--17--------------------|
----------------------------------------16h--21p--16------|
------------------------------------------------------17--|
----------------------------------------------------------|
----------------------------------------------------------|


------------------------------------------------------------|
------------------------------------------------------------|
------------------------------------------------------------|
--21p--17---------------------------------------------------|
-----------19h--22p--19p--14h--19p--14h--19h--22p--19p--14--|
------------------------------------------------------------|


------------------14h--18h--21p--18p--14h--18p--14------|
--------------16------------------------------------16--|
----------15--------------------------------------------|
------16------------------------------------------------|
--18----------------------------------------------------|
--------------------------------------------------------|


----------------------------------------------------------|
--19p--16-------------------------------------------------|
-----------15h--20p--15-----------------------------------|
-------------------------16h--20p--16---------------------|
---------------------------------------18h--21p--18p--13--|
----------------------------------------------------------|


------------------15h--18h--22p--18p--15----------------|
--------------16--------------------------16p--15h--16--|
----------15--------------------------------------------|
------17------------------------------------------------|
--18----------------------------------------------------|
--------------------------------------------------------|


----------------------------------------------------------|
----------------------------------------------------------|
--19p--15p--12--------------------------------------------|
----------------13p--12h--13------------------------------|
------------------------------17p--13p--10----------------|
--------------------------------------------11p--10h--11--|


------------------------------|---------------------------8h--12--|
------------------------------|-----------------------10----------|
------------------------------|--------------------9--------------|
------------14--12--14--12----|--10------------10-----------------|
--14--------------------------|------------12---------------------|
------------------------------|-----------------------------------|


--24p--19p--15------------------------------15h--19h--|
----------------17----------------------17------------|
--------------------16--------------16----------------|
------------------------17------17--------------------|
----------------------------19------------------------|
------------------------------------------------------|


--23p--14p--11------------------------------11h--14h--|
----------------12----------------------12------------|
--------------------11--------------11----------------|
------------------------13------13--------------------|
----------------------------14------------------------|
------------------------------------------------------|


--22p--15p--12------------------------------12h--15--|
----------------13----------------------13-----------|
--------------------12--------------12---------------|
------------------------14------14-------------------|
----------------------------15-----------------------|
-----------------------------------------------------|


-----------------------15~----|--15~------------17~----|
--16~----17~----19~-----------|------------------------|
------------------------------|------------------------|
------------------------------|------------------------|
------------------------------|------------------------|
------------------------------|------------------------|


--19~--------17~----15~----|--15~------------17~----|------------------------|
---------------------------|------------------------|--19~------------L--L\--|
---------------------------|------------------------|------------------------|
---------------------------|------------------------|------------------------|
---------------------------|------------------------|------------------------|
---------------------------|------------------------|------------------------|



Добавлено: 25.05.2012
Другие материалы по этой песне:

Страница создана 14.04.2012
http://primanota.ru/obscura/anticosmic-overload-chords.htm
Привет, Гость.
Предлагаем пройти революционный курс по гитаре.
Подарок от PrimaNota.Ru, забирай!