PrimaNota.ru - самый крупный в мире бесплатный архив песенных текстов, аккордов, табулатур и нот


Obrother - Lay Down - бас-таба, видео

Регистрация Запомнить меня
Войти через:  Facebook Google Twitter Vk Yandex Mail.ru

Obrother - Lay Down - бас-таба, видео

Печатать
Просмотров: 134
This was tabbed by myself by ear. I'd say it's about 99% accurate.
Please figure out the timing and enjoy!


INTRO - start at 0:15
G---------------------------------------------------------------------------------|
D----------------6-7-2-4-2h4p2-----------------6-7-2-4----------------------------|
A--4-2-4~~~4-4-----------------4-4-2-4~~~4-4------------0~~~0h2-------2-4~~~4-4---|
E---------------------------------------------------------------4\0~~~------------|

0:30 Note: make last two notes punchy
G---------------------------------------------------------------------------------|
D----------------6-7-2-4-2h4p2-----------------6-7-2-4----------------------------|
A--4-2-4~~~4-4-----------------4-4-2-4~~~4-4------------0~~~0h2-------2-4~~~~3-3--|
E---------------------------------------------------------------4\0~~~------------|

0:44
G---------------------------------------------------------------------------------|
D----------------6-7-2-4-2h4p2-----------------6-7-2-4----------------------------|
A--3-4~~~~~4-4-----------------4-4-2-4~~~4-4------------0~~~0h2-------2-4~~~4-4---|
E---------------------------------------------------------------4\0~~~------------|

1:00 Note: let last note ring
G-----------------------------------------------------------------------------------|
D----------------6-7-2-4-2h4p2-----------------6-7-2-4------------------------------|
A--4-2-4~~~4-4-----------------4-4-2-4~~~4-4------------0~~~0h2-------2-4~~~4-4~~~~~|
E---------------------------------------------------------------4\0~~~--------------|

1:30 CHORUS
G----------------------------------------------------------------------|
D----------------------------------------------------------------------|
A--000000000000000~~--000000000000000----------------------------------|
E-------------------------------------222222222222222222222222222220/--|

1:45
G---------------------------------------------------------------------------------|
D---------------------------------------------------------------------------------|
A--4~~~~~~~~~~~~~~~~~~~~~~~~~~~~~~~~--4-4~~~~~~~~~~~~~~~~~~~~~~~~~~~~--4\---------|
E--------------------------------------------------------------------------0-2-4--|

2:00
G----------------------------------------------------------------------|
D----------------------------------------------------------------------|
A--2-4-4~~~7\----------------------2h4-4~~~7\--------------------------|
E-------------0~~~~~~~~~0-0-0-2-4-------------0~~~~~~/5~~~~~~~~\0-2-4--|

2:17
G-----------------------------------------------------------------------|
D-----------------------------------------------------------------------|
A--2h4-4~~~7\----------------------------2h4-4~~~7\-----------------0/--|
E-------------0~~~~~~0-0-----0-0-0--0-4-------------0~~~~~~/5~~~~~------|

2:33
G---------------------------------------------------------------------------------|
D---------------------------------------------------------------------------------|
A--4-2-4~~~~~~~~~~~~-4-2-4~~~~~~~~~~~~~~-4\0---0h2-------2-4~~~~~~~~~~~~~~~~~-----|
E--------------------------------------------------4\0----------------------------|

2:47
G--------------------------------------------------------------------------|
D--------------------------------------------------------------------------|
A--0/4-2-4~~~~4~4~4~4~4~4-2-4~~4~4~4~4~4\0---0h2------2-4~4~4~4~4~4~4~4~---|
E------------------------------------------------4\0-----------------------|

3:02
G--------------------------------------------------------------------|
D-----------------45555555544444------------------4555555554--4------|
A-------------------------------224-----------------------------224--|
E--555555554444444-----------------555555554444444-------------------|

3:18
G-----------------------------------------------------|
D-----------------------------------------------------|
A--------------------------------224------------------|
E--5-5-5-5-4-4-4-4-2-2-2-2-0-0-0----555555554~~~~~~~--|

3:29 CHORUS
G--------------------------------------------------------------------|  }
D--------------------------------------------------------------------|  |
A--4444444444444444444444444444440044444444444444444444444444444222--|  |
E--------------------------------------------------------------------|  |
                                                                        | x3
3:45                                                                    |
G--------------------------------------------------------------------|  |
D--------------------------------------------------------------------|  |
A--00000000000000000000000000000000----------------------------------|  |
E----------------------------------22222222222222222222222222222000--|  }

2nd part of 3rd chorus is the end

3:44 Note: Let final note ring
G-----------------------------------------------------------------------------|
D-----------------------------------------------------------------------------|
A--00000000000000000000000000000000--------------------------------4~~~~~~~~~~|
E----------------------------------22222222222222222222222222222000-----------|
Добавлено: 09.08.2013
Вам также может быть интересно:
Другие материалы по этой песне:
  • Аккорды и текст

Страница создана 09.08.2013
http://primanota.ru/obrother/lay-down-chords.htm
Привет, Гость.
Предлагаем пройти революционный курс по гитаре.
Подарок от PrimaNota.Ru, забирай!