PrimaNota.ru - самый крупный в мире бесплатный архив песенных текстов, аккордов, табулатур и нот


Obliterations - Sick Feeling - таба, видео

Регистрация Запомнить меня
Войти через:  Facebook Google Twitter Vk Yandex Mail.ru

Obliterations - Sick Feeling - таба, видео

Печатать
Просмотров: 98
-------------------------------------------------------------------------------
                            SICK FEELING - Obliterations
-------------------------------------------------------------------------------
Tabbed by: Ricky P.
E-mail: petkovsek@hotmail.com

Tuning: Drop D

This is a great song but a pretty simple one to play, with three main parts.

Intro:
e|---------------------------------------------------------------------------|
B|---------------------------------------------------------------------------|
G|---------------------------------------------------------------------------|
D|-0--3--6--3--5-5-5---------------------------------------------------------|
A|-0--3--6--3--5-5-5---------------------------------------------------------|
D|-0--3--6--3--5-5-5---------------------------------------------------------|

Verse:
e|---------------------------------------------------------------------------|
B|---------------------------------------------------------------------------|
G|---------------------------------------------------------------------------|
D|-12-h12-h12-h12--12--10--6--5--3h5p3---------------------------------------|
A|-12-h12-h12-h12--12--10--6--5--3h5p3---------------------------------------|
D|-12-h12-h12-h12--12--10--6--5--3h5p3---------------------------------------|

Refrain:
*For this part, the numbers are eleven and twelve (not ones and zeros)
e|---------------------------------------------------------------------------|
B|---------------------------------------------------------------------------|
G|---------------------------------------------------------------------------|
D|--6-6-6-6--7-7-7-7--11-11-11-11--10-10-10-10-------------------------------|
A|--6-6-6-6--7-7-7-7--11-11-11-11--10-10-10-10-------------------------------|
D|--6-6-6-6--7-7-7-7--11-11-11-11--10-10-10-10-------------------------------|



************************************

| /   slide up
| \   slide down
| h   hammer-on
| p   pull-off
| ~   vibrato
| +   harmonic
| x   Mute note
| b   Bend
| pb  Pre-bend
| br  Bend release
| pbr Pre-bend release
| brb Bend release bend

************************************
Добавлено: 31.12.2015
Другие материалы по этой песне:
  • Аккорды и текст

Страница создана 31.12.2015
http://primanota.ru/obliterations/sick-feeling-chords.htm
Привет, Гость.
Предлагаем пройти революционный курс по гитаре.
Подарок от PrimaNota.Ru, забирай!