PrimaNota.ru - самый крупный в мире бесплатный архив песенных текстов, аккордов, табулатур и нот


Obituary - Redneck Stomp - таба, бас-таба, видео

Регистрация Запомнить меня
Войти через:  Facebook Google Twitter Vk Yandex Mail.ru

Obituary - Redneck Stomp - таба, бас-таба, видео

Печатать
Просмотров: 291
artist:obituary
tab:redneck stomp
tabbed by: mik irvine...aka metalkid66

key: /slide up or down
pm....:palm mute


part 1
|---------------------------------------------------------------------------|
|---------------------------------------------------------------------------|
|---------------------------------------------------------------------------|
|---------------------------------------------------------------------------|
|-2/3----2-2-2-2-3/5--2-2-2-2-8/7-8/7-2-------------------------------------|
|-2/3----0-0-0-0-1/3--0-0-0-0-6/5-6/5-0-------------------------------------|
pm       . . . .      . . . .

part 2
|---------------------------------------------------------------------------|
|---------------------------------------------------------------------------|
|---------------------------------------------------------------------------|
|---------------------------------------------------------------------------|
|-2----2-2-2-2-3/5--2-2-2-2-8/7-8/7-2--3-3-3-3------------------------------|
|-0----0-0-0-0-1/3--0-0-0-0-6/5-6/5-0--1-1-1-1------------------------------|
pm     . . . .      . . . .            . . . .

part 3
|---------------------------------------------------------------------------|
|---------------------------------------------------------------------------|
|---------------------------------------------------------------------------|
|---------7---9-----10-9----------------------------------------------------|
|---------5---7------8-7----------------------------------------------------|
|-0-0-0-0---0--0-0-0--------------------------------------------------------|
pm. . . .   .  . . .


part 4
|---------------------------------------------------------------------------|
|---------------------------------------------------------------------------|
|---------------------------------------------------------------------------|
|---------------------------------------------------------------------------|
|---------6-----------5------------8----------7-----------------------------|
|-0-0-0-0-4---0-0-0-0-3----0-0-0-0-6--0-0-0-0-5-----------------------------|
pm. . . .     . . . .      . . . .    . . . .


part 5
|-----------------------------------------------------------------------------------|
|-----------------------------------------------------------------------------------|
|-----------------------------------------------------------------------------------|
|-----------------------------------------------------------------------------------|
|-------------------------5/6-5/6-2-----------------------7/8-7/8-0-----------------|
|-0-0-0-0-0-0-0-0-0-0-0-0-3/4-3/4-0---:every 4th time>>:--5/6-5/6-0-----------|
pm. . . . . . . . . . . .
this song has no lyrics so there isnt realli a chorus..... but hear is the song progression

part 1 x1
part 2 x5
part 3 x5
part 2 x4
part 3 x7
part 4 x3
part 5 x2
part 4 x2
part 3 x7
part 1 x1
part 2 x2
part 3 x8
part 5 x1 or 2 depending on the fade in the song

hopefull the song progression is correct it may be off by one or 2 steps if it contact 
let_the_bodies_hit_the_floor1@hotmail.com catch yaz later and rock on all you death
fans like me
Добавлено: 24.04.2012
Другие материалы по этой песне:

Страница создана 21.02.2012
http://primanota.ru/obituary/redneck-stomp-chords.htm
Привет, Гость.
Предлагаем пройти революционный курс по гитаре.
Подарок от PrimaNota.Ru, забирай!