PrimaNota.ru - самый крупный в мире бесплатный архив песенных текстов, аккордов, табулатур и нот


Obituary - Evil Ways - таба, видео

Регистрация Запомнить меня
Войти через:  Facebook Google Twitter Vk Yandex Mail.ru

Obituary - Evil Ways - таба, видео

Печатать
Просмотров: 133
Artist: Obituary 
Song: Evil Ways
Album: Xecutioner's Return

Tabbed by:chris

Tuning:D standard 

|-----------------------------------------|
|-----------------------------------------|
|-----------------------------------------|
|-----------------------------------------|
|2-2--------5-5--------4-4--------7/8-8-3-|
|0-0--0000--3-3--0000--2-2--0000--5/6-6-1-|

|-----------------------------------------|
|-----------------------------------------|
|-----------------------------------------|
|-----------------------------------------| 
|---------------------------------7/8-8-3-|
|0-0--0000--0-0--0000--0-0--0000--5/6-6-1-|

|-----------------------------------------|
|-----------------------------------------|
|-----------------------------------------|
|-----------------------------------------|
|---------------------------0000-5555-00--|
|000000-3333-1111-33-111111---------------|

|-----------------------------------------------------------|
|-----------------------------------------------------------|
|-----------------------------------------------------------|
|-----------------------------------------------------------|
|2-2--------5-5--------4-4--------8-7-5--8-7-5--8-7-5--2----|
|0-0--0000--3-3--0000--2-2--0000--6-5-3--6-5-3--6-5-3--0----|



************************************

| /   slide up
| \   slide down
| h   hammer-on
| p   pull-off
| ~   vibrato
| +   harmonic
| x   Mute note
| b   Bend
| pb  Pre-bend
| br  Bend release
| pbr Pre-bend release
| brb Bend release bend

************************************
Добавлено: 02.11.2015
Вам также может быть интересно:
Другие материалы по этой песне:
  • Аккорды и текст

Страница создана 02.11.2015
http://primanota.ru/obituary/evil-ways-chords.htm
Привет, Гость.
Предлагаем пройти революционный курс по гитаре.
Подарок от PrimaNota.Ru, забирай!