PrimaNota.ru - самый крупный в мире бесплатный архив песенных текстов, аккордов, табулатур и нот


Obituary - Chopped In Half - аккорды и текст, таба, видео

Регистрация Запомнить меня
Войти через:  Facebook Google Twitter Vk Yandex Mail.ru

Obituary - Chopped In Half - аккорды и текст, таба, видео

Печатать
Просмотров: 270
Chopped In Half
Obituary
Back again with yet another track from this brutal album (Still my fav.
Obituary album! ;) ). Apologies for any mistakes in this Tab - Its pretty
close though! I'm a little unsure about the closing riff...  It sounds OK,
but its so short I had to guess I got it right! ;)
Don't forget to tune down your guitar about a whole brutal step or two! Oh,
and listen to the song to get the timing right! :) (Track 3!)
Enjoy!

Note: A lot of the fast riffing in Obituaries songs seem to have almost no
Palm muting at all... Listen carefully and you should notice it...
Also note during the first few riffs, there is an array of small variations...
(Again, you should listen to the song a few times before trying to play it)

CHOPPED IN HALF - RIFFS:
=======================
RIFF A:              RIFF A:
[e:---------------------------------------------------------------
b:---------------------------------------------------------------
g:---------------------------------------------------------------
D:---------------------------------------------------------------
A:-2--2---3---5---3--3----2--------------------2--3--5--3--3--2--
E:-0--0---1---3---1--1----0---0000000000000000-0--1--3--1--1--0--]
   (pm)           (pm)

RIFF B:            1,2,3                 ,4
[e:----------------------------------------
b:----------------------------------------
g:----------------------------------------
D:----------------------------------------
A:----------------------------------------
E:-00000000-1-0-1-0-1---55555555-66666666-]

RIFF C:                        RIFF C:
[e:--------------------------------------------------------------
b:--------------------------------------------------------------
g:--------------------------------------------------------------
D:--------------------------------------------------------------
A:-5-5------4-4------3-------------------5--5------4--4-------3-
E:-3-3-0000-2-2-0000-1-0000000000000000--3--3---0--2--2---0---1-]
                               pm        pm

RIFF D:                      RIFF D:
[e:-------------------------------------------------------------------------
b:-------------------------------------------------------------------------
g:-------------------------------------------------------------------------
D:-----------------------------------------7--------------6----------------
A:-5555-----------4444---------------------5----6----7----4----5----6----4-
E:------4444-5555------3333-4444-22222222--5----4----5----4----3----4----2-]

FILL 1:
[e:---------------------
b:---------------------
g:---------------------
D:---------------------
A:-5555-----------4444-
E:------4444-5555------]

RIFF E:
[e:----------------------
b:----------------------
g:----------------------
D:-7----6----5----4-----
A:-5----4----3----2-----
E:-5----4----3----2-----]

RIFF F:
[e:----------------------------
b:----------------------------
g:----------------------------
D:-7------------------------6-
A:-5---------------------5--4-
E:-5-------0-0-0-0-0-0-0-3--4-]

RIFF G:
[e:-----------------------------------------------
b:-----------------------------------------------
g:-----------------------------------------------
D:-----------------------------------------------
A:----------3----------5----------3----------5-6-
E:-00000000-1-00000000-3-00000000-1-00000000-3-4-]

RIFF H:
[e:---------------------------------------------------
b:---------------------------------------------------
g:---------------------------------------------------
D:---------------------------------------------------
A:----------3-4----------5-6----------3-4----------5-
E:-00000000-1-2-00000000-3-4-00000000-1-2-00000000-3-]

RIFF I:
[e:--------------------
b:--------------------
g:--------------------
D:--------------------
A:----------------4-5-
E:-3333-4444-1111-2-3-]

Song Structure:
==============
(Don't forget to listen to the original for variations, etc...)
Riff:           How many times:
----            --------------
RIFF A          4
RIFF A2         5
RIFF A          1
RIFF A2         4
RIFF B          2
RIFF C          7
RIFF C         1
RIFF D          2
RIFF D         1
FILL 1          1
RIFF E          2
RIFF D          2
RIFF D         1
FILL 1          1
RIFF F          6
RIFF D          2
RIFF D         1
FILL 1          1
RIFF E          2
RIFF D          1
FILL 1          1
RIFF G          2
RIFF H          2
RIFF G          2
RIFF H          2
RIFF I - Finish!
Добавлено: 08.01.2014
Другие материалы по этой песне:

Страница создана 06.03.2012
http://primanota.ru/obituary/chopped-in-half-chords.htm
Привет, Гость.
Предлагаем пройти революционный курс по гитаре.
Подарок от PrimaNota.Ru, забирай!