PrimaNota.ru - самый крупный в мире бесплатный архив песенных текстов, аккордов, табулатур и нот


Obituary - bloodshot - таба, видео

Регистрация Запомнить меня
Войти через:  Facebook Google Twitter Vk Yandex Mail.ru

Obituary - bloodshot - таба, видео

Печатать
Просмотров: 103
Уроки эстрадного вокала в Санкт-Петербурге
Artist: Obituary
Song: Bloodshot
Album: Xecutioner's Return
Year: 2007
Tabbed by: antichris666

Tuning: D standard

 Intro
e|---------------------------------------------------------------------------|
B|---------------------------------------------------------------------------|
G|---------------------------------------------------------------------------|
D|-----4-----------------4-----------------4-----------------4---------------|
A|-2---2---4--5--3---2---2---4--5--3---2---2---4--5--3---2---2---4--5--3-3-3-|
E|-0---2---2--3--1---0---2---2--3--1---0---2---2--3--1---0---2---2--3--1-1-1-|
                                                                       . . .

e|-------------------------------------------------------------------------------|
B|-------------------------------------------------------------------------------|
G|-------------------------------------------------------------------------------|
D|-----4-----------------4---------------------4-----------------4---------------|
A|-2---2---4--5--3---2---2---4--5--3-3-3---2---2---4--5--3---2---2---4--5--3-3-3-|
E|-0---2---2--3--1---0---2---2--3--1-1-1---0---2---2--3--1---0---2---2--3--1-1-1-|
                                   . . .                                   . . .             

 Verse
e|------------------------------------------------------------------|
B|------------------------------------------------------------------|
G|------------------------------------------------------------------|
D|------------------5--------------------------------5--------------|
A|-7-8-5-6----------3-------3--------7-8-5-6---------3-------3------|
E|-5-6-3-4--0-0-0---3--0-0--1--0-0---5-6-3-4--0-0-0--3--0-0--1--0-0-|
            . . .      . .     . .            . . .     . .     . . 

e|-------------------------------------------------------------------------|
B|-------------------------------------------------------------------------|
G|-------------------------------------------------------------------------| 
D|---------------------------8-8----------------------------------8-8------|
A|-8-9-6-7---------8-8-------6-6--------8-9-6-7---------8-8-------6-6------|
E|-6-7-4-5--0-0-0--6-6--0-0-------0-0---6-7-4-5--0-0-0--6-6--0-0-------0-0-|
            . . .       . .       . .            . . .       . .       . . 

 Solo Rhythm
e|------------------------------------------------------------------|
B|------------------------------------------------------------------|
G|------------------------------------------------------------------|
D|------------------5--------------------------------5--------------|
A|-7-8-5-6----------3-------3--------7-8-5-6---------3-------3------|
E|-5-6-3-4--0-0-0---3--0-0--1--0-0---5-6-3-4--0-0-0--3--0-0--1--0-0-|
            . . .      . .     . .            . . .     . .     . . 

e|----------------------------------------------------------------------------------------------------|
B|----------------------------------------------------------------------------------------------------|
G|----------------------------------------------------------------------------------------------------| 
D|-------------------------------------8-8-----------------------------------------------8-8----------|
A|-8-9-6-7---------------8-8-----------6-6-----------8-9-6-7---------------8-8-----------6-6----------|
E|-6-7-4-5--0-0-0-0-0-0--6-6--0-0-0-0-------0-0-0-0--6-7-4-5--0-0-0-0-0-0--6-6--0-0-0-0-------0-0-0-0-|
            . . . . . .       . . . .       . . . .           . . . . . .       . . . .       . . . . 

 Outro
e|---------|
B|---------|
G|---------|
D|---------|
A|-7-8-5-6-|
E|-5-6-3-4-|


************************************

| .   palm mute
| /   slide up
| \   slide down
| h   hammer-on
| p   pull-off
| ~   vibrato
| +   harmonic
| x   Mute note
| b   Bend
| pb  Pre-bend
| br  Bend release
| pbr Pre-bend release
| brb Bend release bend

************************************
Добавлено: 08.05.2016
Другие материалы по этой песне:
  • Аккорды и текст

Страница создана 08.05.2016
http://primanota.ru/obituary/bloodshot-chords.htm
Привет, Гость.
Предлагаем пройти революционный курс по гитаре.
Подарок от PrimaNota.Ru, забирай!