PrimaNota.ru - самый крупный в мире бесплатный архив песенных текстов, аккордов, табулатур и нот


Oberhofer - Away From You - таба, видео

Регистрация Запомнить меня
Войти через:  Facebook Google Twitter Vk Yandex Mail.ru

Oberhofer - Away From You - таба, видео

Печатать
Просмотров: 60
Уроки эстрадного вокала в Санкт-Петербурге
-------------------------------------------------------------------------------
                             Away From You - Oberhofer
-------------------------------------------------------------------------------
Tabbed by: benlands3
E-mail: benlands3@gmail.com

Tuning: standard

This is how I play Away From You and I thought I should share

intro
e|-------------------------------------------------------------------------------------------|
B|-------------------------------------------------------------------------------------------|
G|------------------------------------------------11---9---11-9------------------------------|
D|-7~-----7---7---9/11---11---11---11---11---11-------------------11---11---11---11---11-----|
A|------9---9---9------0----0----0----0----0----0----0---0------0----0----0----0----0--------|
E|-------------------------------------------------------------------------------------------|

e|---------------------------------------------------------------------------|
B|---------------------------------------------------------------------------|
G|----11---9---11-9--------------------9---6---6---6-------------------------|
D|--------------------11---9---7---7-------------------6---6---7---7---------|
A|--0----0---0------0----0---0---0---0---0---0---0---0---0---0---0-----------|
E|---------------------------------------------------------------------------|

verse
a few differences
e|-------------------------------------------------------------------------------------------|
B|-------------------------------------------------------------------------------------------|
G|------------------------------------------------11---9---11-9------------------------------|
D|-------7---7---7-9--9/11--11---11---11---11---------------------11---11---11---11---11-----|
A|-----9---9---9-----9--- 0----0----0----0------0----0---0------0----0----0----0----0--------|
E|-------------------------------------------------------------------------------------------|

e|---------------------------------------------------------------------------|
B|---------------------------------------------------------------------------|
G|----11---9---11-9--------------------9---6---6---6-------------------------|
D|--------------------11---9---7---7-------------------6---6---7---7---------|
A|--0----0---0------0----0---0---0---0---0---0---0---0---0---0---0-----------|
E|---------------------------------------------------------------------------|


************************************

| /   slide up
| \   slide down
| h   hammer-on
| p   pull-off
| ~   vibrato
| +   harmonic
| x   Mute note
| b   Bend
| pb  Pre-bend
| br  Bend release
| pbr Pre-bend release
| brb Bend release bend

************************************
Добавлено: 04.05.2016
Другие материалы по этой песне:
  • Аккорды и текст

Страница создана 04.05.2016
http://primanota.ru/oberhofer/away-from-you-chords.htm
Привет, Гость.
Предлагаем пройти революционный курс по гитаре.
Подарок от PrimaNota.Ru, забирай!