PrimaNota.ru - самый крупный в мире бесплатный архив песенных текстов, аккордов, табулатур и нот


Обе две - Уведомление (Мятные) - аккорды и текст, видео

Регистрация Запомнить меня
Войти через:  Facebook Google Twitter Vk Yandex Mail.ru

Обе две - Уведомление (Мятные) - аккорды и текст, видео

Печатать
Просмотров: 1242
Уроки эстрадного вокала в Санкт-Петербурге
Уведомление (Мятные)
Обе две
КУПЛЕТ
Am/C** (C)_______ Am/B** (E7)
вышли мне уведомление
Am/E** (Am)_____ F7M** (F)
скажи, что все хорошо
Am/C**________ Am/B**
из личных соображений
_________(Am/E*_Am/B*) 2 раза
для совести удовлетворения
(и так далее)

ПРОЙГРЫШ
2)----------8-------------8------------5---------------
3)--------------------------------------7-----------0---
4)------10------------10-------------------------4----
5)----------------------------------7------------2------
6)--8------------10---------------------------0--------
ПРИПЕВ
C____________Em_E
а, может быть, ты ко мне?
________D_______A_______A#
рассветы мятые, постели, поцелуи
Gm_________A#6
мятные, как хочешь,
________Em_______A
со мной неделю, без меня все ночи.
Dm______A
мятые, постели, поцелуи
F__________A#
мятные, как хочешь,
________Gm______A#7M (A#) __C#dim/E (A) 
со мной неделю, без меня

и еще, Коля Алексеев вроде ее играет так (два варианта по звучанию впринципе одинаковы, кому как удобно)
ВСТУПЛЕНИЕ
2)-----10---------10--------------10-----------10----------10---------10------------10---------10-----
3)------9-----------9---------------9-------------9-----------9----------9--------------9----------9------
4)------------------------------------------------------------------------------------------------------------
5)-------------------------------------------------------7-------------7-----------8-------------8----------
6)--8---------8-------------7-------------7-----------------------------------------------------------------

2)-----10---------10--------------10-----------10----------10---------10------------10---------10-----
3)------9-----------9---------------9-------------9-----------9----------9--------------9----------9------
4)------------------------------------------------------------------------------------------------------------
5)-------------------------------------------------------7-------------7------------------------------------
6)--8---------8-------------7-------------7---------------------------------------9-------------9-----------
КУПЛЕТ
2)-----10---------10--------------10-----------10----------10---------10------------10---------10-----
3)------9-----------9---------------9-------------9-----------9----------9--------------9----------9------
4)------------------------------------------------------------------------------------------------------------
5)-------------------------------------------------------7-------------7-----------8-------------8----------
6)--8---------8-------------7-------------7-----------------------------------------------------------------

2)-----10---------10--------------10-----------10----------10---------10------------10---------10-----
3)------9-----------9---------------9-------------9-----------9----------9--------------9----------9------
4)------------------------------------------------------------------------------------------------------------
5)-------------------------------------------------------7-------------------------7-------------------------
6)--8---------8-------------7-------------7------------------------7---------------------------7-----------
Добавлено: 01.06.2014
Другие материалы по этой песне:
  • Аккорды и текст

Страница создана 01.06.2014
http://primanota.ru/obe-dve/uvedomlenie-myatnye-chords.htm
Привет, Гость.
Предлагаем пройти революционный курс по гитаре.
Подарок от PrimaNota.Ru, забирай!