PrimaNota.ru - самый крупный в мире бесплатный архив песенных текстов, аккордов, табулатур и нот


Обе две - Босоногий пес - аккорды и текст, видео

Регистрация Запомнить меня
Войти через:  Facebook Google Twitter Vk Yandex Mail.ru

Обе две - Босоногий пес - аккорды и текст, видео

Печатать
Просмотров: 1278
Уроки эстрадного вокала в Санкт-Петербурге
Босоногий пес
Обе две
Сыграть можно различными вариантами. Для акустики, как по мне, этот проще. 

ВСТУПЛЕНИЕ

3)------6--------6--------6------------6--------6-------6-------------6--------6--------6------------6--------6-------6-
4)-8--------8--------8--------8---6--------6-------6--------6---5--------5--------5--------5---4--------4--------4----

КУПЛЕТ 

3)------6--------6--------6------------6--------6-------6-------------6--------6--------6------------6--------6-------6-
4)-8--------8--------8--------8---6--------6-------6--------6---5--------5--------5--------5---4--------4--------4----

здесь, я здесь, и в спину дышат
ближе
как никогда твои рысьи глаза
здесь раздеться и напишут
выжгут
вырежут на плече "он ничего не сказал"

2)------------------------------------------------4-------4--------4----------------------------------------------------------
3)------6--------6--------6------------6--------------------------------------------------------------------------------------
4)-8--------6--------6--------6---5--------3-------3--------3-------3------------------------------------------------------

звёзды зырили синими дырами
звёзды играли в снежки
тронет ресницы инеем
..
чтобы согреться я носил под рубахой птицу
чтобы согреться я грыз на морозе кость
чтобы согреться я дышал на твои мизинцы
дай мне сахар. я - босоногий пёс

ПРОЙГРЫШ

2)-----6-------6-------6------------4------4--------4----------------------------------------------------------------------
3)-----------------------------------------------------------------5--------5--------5------------6--------6--------6------
4)-4-------4-------4-------4---3-------3-------3-------3------------------------------------------------------------------
5)-------------------------------------------------------------4--------4--------4--------4---6--------6--------6-------6-

2)-----6-------6-------6------------4------4--------4------------------------------------------------4--------------------
3)------------------------------------------------------------------6--------6--------6-----------3-------------------------
4)-4-------4-------4-------4---3-------3-------3-------3------------------------------------3----------------------------
5)-------------------------------------------------------------6--------6-------6---------6---------------------------------

ПРОЙГРЫШ 2 (coda)

3)-----6-------5--------6--------5--------6--------5--------6--------6--------8--------8---------------------------------
4)-8------6--------8--------6--------8--------6----------------------------------------------------------------------------
5)--------------------------------------------------------6--------6--------8--------8--------------------------------------
Добавлено: 11.06.2014
Другие материалы по этой песне:
  • Аккорды и текст

Страница создана 31.01.2014
http://primanota.ru/obe-dve/bosonogii-pes-chords.htm
Привет, Гость.
Предлагаем пройти революционный курс по гитаре.
Подарок от PrimaNota.Ru, забирай!