PrimaNota.ru - самый крупный в мире бесплатный архив песенных текстов, аккордов, табулатур и нот


Oasis - Merry X Mas Everybody - аккорды и текст, видео

Регистрация Запомнить меня
Войти через:  Facebook Google Twitter Vk Yandex Mail.ru

Oasis - Merry X Mas Everybody - аккорды и текст, видео

Печатать
Просмотров: 133
Уроки эстрадного вокала в Санкт-Петербурге
Авторы: Jim Lea, Noddy Holder

Merry X Mas Everybody
Oasis
INTRO: (listen to song for strumming)
Am E x4
 

Am F
I sold my soul for the second time
C E7 E
Cos the man don't pay me
Am F
I begged my landlord for some more time
C E7 E
He said son the bills waitin
Am F
My best friend called me the other night
C E7 E
He said man you crazy
Am F
My girlfriend told me to get a life
C E7 E
She said boy! You lazy!

CHORUS
Dm Am
But I don't mind
Dm Am
As long as theres a bed beneath the stars that shine
Dm Am
I'll be fine
F
If you give me a minute, a man's gotta limit
C E7
I can't get a life if my hearts not in itttt



e-|---------------------------------------|
B-|------------13-12---------8-10-8-------|
G-|7-9-7-------------14-12-----------9-8-9| (x2)
D-|-------10-7-------------14-------------|
A-|---------------------------------------|
E-|---------------------------------------|

e-----------------------------------------
B15-15-13-13---15-15-13-13-12-13----------
G--------14-14---------14-------13-12-----
D-----------------------------------------
A-----------------------------------------
E-----------------------------------------



Dm Am
i don't mind
Dm Am
as long as there's a bed beneath the stars that shine
Dm Am
i'll be fine
*F7M  
if you give me a minute, a man's got a limit
G E
i can't get a life if my heart's not in it...

(repeat intro)
*F7M   Am

Am *F7M  
i lost my faith in the summertime
C E7 E
cos it don't stop raining
Am *F7M  
the sky all day is as black as night
C E7 E
but i'm not complaining
Am *F7M  
i begged my doctor for one more line
C E7 E
he said "son... words fail me"
Am *F7M  
it ain't no place to be killing time
C E7 E
i guess i'm just lazy

Dm Am
i don't mind
Dm Am
as long as there's a bed beneath the stars that shine
Dm Am
i'll be fine
*F7M  
if you give me a minute, a man's got a limit
G E
i can't get a life if my heart's not in it...

(repeat intro)

Am E (ends with Am)
Добавлено: 08.04.2014
Другие материалы по этой песне:
  • Аккорды и текст

Страница создана 02.04.2014
http://primanota.ru/oasis/merry-x-mas-everybody-2-chords.htm
Привет, Гость.
Предлагаем пройти революционный курс по гитаре.
Подарок от PrimaNota.Ru, забирай!