PrimaNota.ru - самый крупный в мире бесплатный архив песенных текстов, аккордов, табулатур и нот


Oasis - Little by little1 - бас-таба, видео

Регистрация Запомнить меня
Войти через:  Facebook Google Twitter Vk Yandex Mail.ru

Oasis - Little by little1 - бас-таба, видео

Печатать
Просмотров: 88


Date: Sun, 7 JUL 2003 19:26:29 +0000
From: Chris C amp; Mark S 
Album: Heathen Chemistry
Song: little By Little: Track6
Written By: Noel Gallagher 
Tabbed By: Chris Calland amp; Mark Smith

This Is Our First Bass Tab and We Are Pretty Proud
Of It. Its 100% Accurate And Sounds The Dog's Bollocks
Oasis Are Gods.

INTRO
G|-----------------|----------------||
D|-----------------|----------------||
A|-3-3-3-3---------|---------7------||
E|----------3-3-3-3|----------------||

Verse
G|-----------------|-----------------|-----------------|
D|-----------------|-----------------|-----------------|
A|---0----7----0---|---7----0----7---|---0----7----0---|
E|-----------------|-----------------|-----------------|

G|-----------------||
D|-----------------||
A|---7----0--------||
E|-----------------||

Bridge
G|-----------------|-----------------|-----------------|
D|-----------------|-5-------5--5----|-----------------|
A|--5------5-----9-|---------------9-|--7---7---7---7--|
E|-----------------|-----------------|-----------------|

G|-----------------||
D|-7--7---7-7-7-7--||
A|-----------------||
E|-----------------||

Chorus
G|-----------------|-----------------|-----------------|
D|--5------5---5---|-----------------|--7------7---7---|
A|-----------------|--5------5---5---|-----------------|
E|-----------------|-----------------|-----------------|

G|-----------------||
D|-----------------||X
A|--7--7----9--9---||3
E|-----------------||

G|-----------------|-----------------|--5------5---5---|
D|--5------5---5---|-----------------|-----------------|
A|-----------------|--5------5---5---|-----------------|
E|-----------------|-----------------|-----------------|

G|--4------4---4---|-----------------||
D|-----------------|--7--------------||
A|-----------------|-----------------||
E|-----------------|-----------------||

Verse
G|-----------------|------------------|-----------------|
D|-----------------|---7--11s12--13-13|-----------------|
A|--------7--------|-7----------------|--------7--------|
E|-----------------|------------------|-----------------|

G|-----------------------|-----------------|------------------|
D|-13s12-12s11--7p5-7-7--|-----------------|---7--11s12--13-13|
A|-----------------------|--------7--------|-7----------------|
E|-----------------------|-----------------|------------------|

G|-----------------||
D|-----------------||
A|----7-------0----||
E|-----------------||

Bridge
G|-----------------|-----------------|-----------------|
D|-----------------|-5-------5--5----|-----------------|
A|--5------5-----9-|---------------9-|--7---7---7---7--|
E|-----------------|-----------------|-----------------|

G|-----------------||
D|-7--7---7-7-7-7--||
A|-----------------||
E|-----------------||

Chorus
G|-----------------|-----------------|-----------------|
D|--5------5---5---|-----------------|--7------7---7---|
A|-----------------|--5------5---5---|-----------------|
E|-----------------|-----------------|-----------------|

G|-----------------||
D|-----------------||X
A|--7--7----9--9---||3
E|-----------------||

G|-----------------|-----------------|--5------5---5---|
D|--5------5---5---|-----------------|-----------------|
A|-----------------|--5------5---5---|-----------------|
E|-----------------|-----------------|-----------------|

G|--4------4---4---||
D|-----------------||
A|-----------------||
E|-----------------||

Solo 2:30
G|-----------------|-----------------|-----------------|
D|--7----7-7----7--|--7----7-7----7--|--7----7-7----7--|
A|-----------------|-----------------|-----------------|
E|-----------------|-----------------|-----------------|

G|-----------------||
D|--5-5------------||X
A|----------5--5---||2
E|-----------------||

G|-----------------|-----------------|-----------------|
D|-----------------|-----------------|-----------------|
A|--5----5-5----5--|--5----5-5----5--|--5----5-5----5--|
E|-----------------|-----------------|-----------------|

G|-----------------|
D|---7--7----5--5--|
A|-----------------|
E|-----------------|

G|-----------------|-----------------|-----------------||
D|-----------------|-----------------|--7--7---7--7--7-||
A|--5----5-5----5--|--5----5-5----5--|-----------------||
E|-----------------|-----------------|-----------------||

Chorus
G|-----------------|-----------------|-----------------|
D|--5------5---5---|-----------------|--7------7---7---|
A|-----------------|--5------5---5---|-----------------|
E|-----------------|-----------------|-----------------|

G|-----------------||
D|-----------------||X
A|--7--7----9--9---||4
E|-----------------||

SOLO 2 3:25
G|-----------------|-----------------|------------------|
D|-----------------|--------12h14p12-|--12-12-12h14p12--|
A|--10-------10----|-12h14-----------|------------------|
E|-----------------|-----------------|------------------|
                                                      
G|-----------------|-----------------| 	|-----------------||
D|-----------------|-----------------|X	|-----------------||
A|---14--p--12-12--|--7--7----9--9---|4	|--------5s--7s-5-||
E|-----------------|-----------------|  |hold-------------||
                   (     3x only     ) 	(     4th Time     )

Outro
G|-----------------|-----------------||
D|-----------------|-----------------||Repeat Till Fade....
A|--5---s------17--|-17-----s------5-||
E|-----------------|-----------------||


Добавлено: 29.09.2013
Другие материалы по этой песне:
  • Аккорды и текст

Страница создана 29.09.2013
http://primanota.ru/oasis/little-by-little1-chords.htm
Привет, Гость.
Предлагаем пройти революционный курс по гитаре.
Подарок от PrimaNota.Ru, забирай!