PrimaNota.ru - самый крупный в мире бесплатный архив песенных текстов, аккордов, табулатур и нот


Oasis - Getting Older - аккорды и текст, таба, видео

Регистрация Запомнить меня
Войти через:  Facebook Google Twitter Vk Yandex Mail.ru

Oasis - Getting Older - аккорды и текст, таба, видео

Печатать
Просмотров: 138
Getting Older
Oasis
		   Author/Artist: Noel Gallagher
Title: Getting Older
Album: -
Transcribed by: Tamir Haber
Email: haber_t@netvision.net.il
Chords used:

   A  A7  D  Dm  E  A7/G  A7/F#  A7/F
e--0--0---2--1---0----0-----0------0----
B--2--2---3--3---0----2-----2------2----
G--2--0---2--2---1----0-----0------0----
D--2--2---0--0---2----2-----2------2----
A--0--0------0---2----x-----x------x----
E------------0---0----3-----2------1----

Intro:    A    A7    D    Dm    A    E    D    A



A
   It's nine o'clock
A7
   I'm getting tired
       D
   I'm sick of all my records
           Dm                    A
   And the clothes I've bought today
                 E
   Am I cracking up?
                   D    A
   Or just getting older?



A
   I'm staying in
A7
   I can't be bothered
   D
   Making conversation
              Dm                 A
   With the friends that I don't know
                 E
   Am I cracking up?
                   D   A
   Or just getting older?

Solo:

A          A7              A7/G           A7/F#     A7/F          E     D   A
-----------------------------------------------------------------------------
-----------------------------------------------------------------------------
---6s9s6--------6s9---9b11r9s6--------6b7r6s2--------5s4-----2----4----------
-----------------------------------------------------------------------------
-----------------------------------------------------------------------------
-----------------------------------------------------------------------------

                       D
And I bet that this is how life
D                             A
Turns out when you're finally grown up
A                       D
And you know if this is my life
D                           ?????      E
I'll sit around all day and moan



A
   I'm half-way up
A7
   To the bottom
   D
   Of another bottle of
      Dm
   My next best favourite friend
                 E
   Am I cracking up?
                   D   A
   Or just getting older?




                    E                       D   A
You're not cracking up, you're just getting older
                   E                      D   A
We're not cracking up, we're just getting older
                   E                      D
We're not cracking up, we're just getting older

                                     A
------------------------------------------------------------------------------
-----15s17s15---13-----12------12/13/14vvv------------------------------------
-14----------------14-----14--------------------------------------------------
------------------------------------------------------------------------------
------------------------------------------------------------------------------
------------------------------------------------------------------------------asp     
Добавлено: 01.11.2013
Другие материалы по этой песне:
  • Аккорды и текст

Страница создана 06.03.2012
http://primanota.ru/oasis/getting-older-chords.htm
Привет, Гость.
Предлагаем пройти революционный курс по гитаре.
Подарок от PrimaNota.Ru, забирай!