PrimaNota.ru - самый крупный в мире бесплатный архив песенных текстов, аккордов, табулатур и нот


Oar - Whatever Happened - аккорды и текст, таба, видео

Регистрация Запомнить меня
Войти через:  Facebook Google Twitter Vk Yandex Mail.ru

Oar - Whatever Happened - аккорды и текст, таба, видео

Печатать
Просмотров: 100
Авторы: Dave Bassett, Richard On, Marc Roberge

Whatever Happened
Oar
100% correct.  standard eadgbe tuning.


Chords Used

   Ab       F#     E      B
e|--4---|---2---|--0--|---2---|
B|--4---|---2---|--0--|---3---|
G|--5---|---3---|--1--|---4---|
D|--6---|---4---|--2--|---4---|
A|--6---|---4---|--2--|---2---|
E|--4---|---2---|--0--|---2---|

Intro --> E chord strummed lightly back and forth

Verse ( Tell me im dreaming...)
    Ab     F#      E    (E) (let ring)
e|--4------2-------0----(0)---|
B|--4------2-------0----(0)---|
G|--5------3-------1----(1)---|
D|--6------4-------2----(2)---|
A|--6------4-------2----(2)---|
E|--4------2-------0----(0)---|

Pre-Chorus ( Whatever happened...)

        F#      B
e|------2-------2-----|
B|------2-------3-----|
G|------3-------4-----|
D|------4-------4-----|   2X
A|------4-------2-----|
E|------2-------2-----|


Verse ( spent the night out on the hill...)

   Ab      F#      E    (E) (let ring)
e|--4------2-------0----(0)---|
B|--4------2-------0----(0)---|
G|--5------3-------1----(1)---|
D|--6------4-------2----(2)---|  4X
A|--6------4-------2----(2)---|
E|--4------2-------0----(0)---|


Chorus (Its been a long way back...)

     E     F#    Ab    F
e|---0-----2-----4-----2--|
B|---0-----2-----4-----2--|
G|---1-----3-----5-----3--|     2X
D|---2-----4-----6-----6--|
A|---2-----4-----6-----6--|
E|---0-----2-----4-----4--|

Verse (City gates of rusted iron...)

   Ab      F#      E    (E) (let ring)
e|--4------2-------0----(0)---|
B|--4------2-------0----(0)---|
G|--5------3-------1----(1)---|
D|--6------4-------2----(2)---|    4X
A|--6------4-------2----(2)---|
E|--4------2-------0----(0)---|

Chorus (Its been a long way back...)

     E     F#    Ab    F
e|---0-----2-----4-----2--|
B|---0-----2-----4-----2--|
G|---1-----3-----5-----3--|     2X
D|---2-----4-----6-----6--|
A|---2-----4-----6-----6--|
E|---0-----2-----4-----4--|


Outro

Verse  2X
Chorus  till the end

-JKJ
Добавлено: 27.02.2012
Другие материалы по этой песне:
  • Аккорды и текст

Страница создана 27.02.2012
http://primanota.ru/oar/whatever-happened-chords.htm
Привет, Гость.
Предлагаем пройти революционный курс по гитаре.
Подарок от PrimaNota.Ru, забирай!