PrimaNota.ru - самый крупный в мире бесплатный архив песенных текстов, аккордов, табулатур и нот


Oar - Over And Over - аккорды и текст, видео

Регистрация Запомнить меня
Войти через:  Facebook Google Twitter Vk Yandex Mail.ru

Oar - Over And Over - аккорды и текст, видео

Печатать
Просмотров: 116
Over And Over
Oar
			O|A|R
	             Over and Over


                 Tabbed by Craig Lange
		      (for Abbie)

Converting this from piano was tricky for me, so this may not be entirely correct.
Please let me know if you have any suggestions or questions.  Also let me know if this tab
was helpful. Thanks

Cords to use…
E------------------------------2-----------------------------|
B--------------2---4---5-------2-----------------------------|
G--1-----4-----2---4---6---6---3------13---13-----13---10----|
D--2-----2-----2---4---6---7---4------14---14-----12---11----|
A--2-----4---------2---4---7---4------14---14-----12---11----|
E--------3-----------------5---2------12---11-----10---9-----|
   E   Em6/G   A   B  C#m  A*  F#     E*  E7/Eb   D    C#


If easier, you can play the E* as X7999X, the E7/Eb as X6999X, the D as X57775, and the 
C# as X46664.

For easier reading, I didn't list the cords on each strum, thus, you'll have to figure
out how many times to strum each cord.  I did configure the cords over the correct
location relative to the words in the song; so provided this copies correctly onto the 
webpage (which it might not), you should switch cords as shown above the lyrics.


Intro

---------------------|
----------2----------|
-------1------0------|   X 2
-------2-------------|
-------2-------------|
---0-----------------|


Verse:
                E          Em6/G              E
---------------------------------------------------------|
--------------------------------------------------2------|
----------------1------------4----------------1------0---|
----------------2------------2----------------2----------|
----------------2------------4----------------2----------|
---0-------------------------3------------0--------------|
   Sitting here waiting on a new situation


             E        Em6/G                E
------------------------------------------------------|
-----------------------------------------------2------|
-------------1----------4------------------1------0---|
-------------2----------2------------------2----------|
-------------2----------4------------------2----------|
---0--------------------3--------------0--------------|
   On my way back to an old destination


               E        Em6/G                            E
------------------------------------------------------------------|
------------------------------------------------------------2-----|
---------------1----------4------------------------------1------0-|
---------------2----------2------------------------------2--------|
---------------2----------4------------------------------2--------|
---0----------------------3---------------------------0-----------|
   I tried all night but I couldn't find the answers, No


                   E          Em6/G                        E
--------------------------------------------------------------------|
--------------------------------------------------------------2-----|
-------------------1------------4--------------------------1------0-|
-------------------2------------2--------------------------2--------|
-------------------2------------4--------------------------2--------|
---0----------------------------3----------------------0------------|
   I gotta make it work cuz I'm running out of chances



                   E          Em6/G                    E
---------------------------------------------------------------------|
---------------------------------------------------------------------|
-------------------1------------4----------------------1-------------|
-------------------2------------2----------------------2-------------|
-------------------2------------4----------------------2-------------|
---0----------------------------3------------------------------------|
   I gotta make it work cuz I'm running out of chances   Yeahhhhhhh



   (keep strumming the E)
------------------------------|
------------------------------|
------------------------------|
------------------------------|
------------------------------|
------------------------------|
   I must be out of my mind


Chorus:

  A        E           B
------------------------------------------|
--2---------------------------------------|
--2--------1-----------4------------------|
--2--------2-----------4------------------|
-----------2-----------4------------------|
-----------------------2------------------|
  And all the melodies coming back to me



 C#m
--------------------------------------|
--5-----------------------------------|
--6-----------------------------------|
--6-----------------------------------|
--4-----------------------------------|
--------------------------------------|
  I think I'm feeling just fine



  A*   E      C#m                       B
-------------------------------------------|
---------------5------------------------4--|
--6----1-------6------------------------4--|
--7----2-------6------------------------4--|
--7----2-------4------------------------2--|
--5----------------------------------------|
  City lights, just a few more miles to go



            A*                    E
--------------------------------------------------|
--------------------------------------------------|
------------6---------------------1---------------|
------------7---------------------2---------------|
------------7---------------------2---------------|
------------5-------------------------------------|
  I do this all the time why do I draw these lines




  B   E      C#m                    A*                     E
-------------------------------------------------------------|
--4----------------------------------------------------------|
--4-------------------6-------------6----------------------1-|
--4-------------------7---------2---7----------------------2-|
--2-------------------7-----2-4-----7----------------------2-|
----------------------5-------------5------------------------|
  They keep me out of reach         Its not what I wanted, No



 C#m                     F#
-------------------------2---------------------------------|
--5----------------------2--------------------------2------|
--6----------------------3-----------------------1-----0---|
--6----------------------4-----------------------2---------|
--4----------------------4-----------------------2---------|
-------------------------2-------------------0-------------|
  But it brings me to my knees      over and over



Verse:
E                         Em6/G
Sitting here waiting on a new conversation
E                                  Em6/G
You're talking out of turn and I'm running out of patience

Verse:

 A        E            B
 And all the melodies are coming back to me
 C#m
 I think I'm feeling just fine
 A*   E       C#m                      B
 City lights, just a few more miles to go
           A*                    E
 I do this all the time why do I draw those lines
 B    E       C#m
 They keep me out of reach
 A*                     E
 Its not what I wanted, No
 C#m                    B
 But it might be what I need


 A*                    E
 I do this all the time why do I draw those lines
 B    E       C#m
 They keep me out of reach
 A*                         E
 This is not what I wanted, No
 C#m                    F#
 But it brings me to my knees

         E
Over and over
E
Over and over


E*    E7/Eb      D
Sunny dayyyyyyyysss
A*
God I swear there must be
E*    E7/Eb
Sunny days
C#       A*
Up ahead or in between
C#m   B
Sunny days
A                           F#
I think I found you in this place
         A*
Over and over
E
Over and over
E
Over and over
E
Over and over

And again
Добавлено: 25.03.2012
Другие материалы по этой песне:
  • Аккорды и текст

Страница создана 25.03.2012
http://primanota.ru/oar/over-and-over-chords.htm
Привет, Гость.
Предлагаем пройти революционный курс по гитаре.
Подарок от PrimaNota.Ru, забирай!