PrimaNota.ru - самый крупный в мире бесплатный архив песенных текстов, аккордов, табулатур и нот


Oar - Mr Moon - аккорды и текст, таба, видео

Регистрация Запомнить меня
Войти через:  Facebook Google Twitter Vk Yandex Mail.ru

Oar - Mr Moon - аккорды и текст, таба, видео

Печатать
Просмотров: 152
Mr Moon
Oar
JKJ

Standard tuning
strumming pattern can be played as written but you kinda need to mix it up so it sounds good


Chords Used

   F  C  G  E
e|-1--3--3--5-|
B|-1--3--3--5-|
G|-1--5--3--5-|
D|-2--5--5--7-|
A|-2--3--5--7-|
E|-1--3--3--5-|

Intro/verse


e|-1------3------|
B|-1------3------|
G|-1------5------|
D|-2------5------|
A|-2------3------|
E|-1------3------|

Chorus


e|-5---3---1---|
B|-5---3---1---|
G|-5---3---1---|
D|-7---5---3---|
A|-7---5---3---|
E|-5---3---1---|


Bridge


e|-3----5----1----3----|
B|-3----5----1----3----|
G|-5----5----1----5----|
D|-5----7----3----5----|
A|-3----7----3----3----|
E|-3----5----1----3----|
Добавлено: 11.05.2012
Другие материалы по этой песне:
  • Аккорды и текст

Страница создана 11.05.2012
http://primanota.ru/oar/mr-moon-chords.htm
Привет, Гость.
Предлагаем пройти революционный курс по гитаре.
Подарок от PrimaNota.Ru, забирай!