PrimaNota.ru - самый крупный в мире бесплатный архив песенных текстов, аккордов, табулатур и нот


O-two - Imago Drastik - таба, видео

Регистрация Запомнить меня
Войти через:  Facebook Google Twitter Vk Yandex Mail.ru

O-two - Imago Drastik - таба, видео

Печатать
Просмотров: 97
Уроки эстрадного вокала в Санкт-Петербурге
This tab created by Ahmad Muammar. (muammar193@gmail.com)
Any problem, bug,mistake, misspelling, comment or improvement please email to me 
or add my facebook(the same email).

Band     : O-Two (http://www.facebook.com/otwoband) (http://www.myspace.com/otwoband)
Song     : Imago Drastik
Album    : Evolusi 
TAB      : Whole song
Tuning   : EADGBe
Guitar 1 : Lead Guitar
Guitar 2 : Rhythm Guitar

Every copyright goes to the owner and not me except for tabs.
Recommended to try this while playing the original song. :) Good luck!

Intro 

Guitar 1

e|-----------------------------|
B|-----------------------------|
G|-10--x-----------------------|
D|-10--x-----------------------|
A|-8---x-----------------------|
E|-8---x-----------------------|

Guitar 2

e|-----------------------------|
B|-----------------------------|
G|-10--x-----------------------|
D|-10--x-----------------------|
A|-8---x-----------------------|
E|-8---x-----------------------|

Guitar 1

e|-----------------------------|
B|-----------------------------|
G|-10--x-----------------------|
D|-10--x-----------------------|
A|-8---x-----------------------|
E|-8---x-----------------------|

Guitar 2 

e|-----------------------------|
B|-----------------------------|
G|-10--x-----------------------|
D|-10--x-----------------------|
A|-8---x-----------------------|
E|-8---x-----------------------|

Guitar 1 

e|---------------------------------------------------------------|
B|---------------------------------------------------------------|
G|--10p9-----10p9-----10p9-----10p9-----10p9-----10p9-----10p9---|
D|------10-------10-------10-------10-------10-------10-------12-|
A|---------------------------------------------------------------|
E|---------------------------------------------------------------|

                                 **   
e|--------------------------------------------|
B|--------------------------------------------|
G|-10p9-----10p9-----10p9---------------------|
D|-----12-------12------------3--33-3---------|
A|----------------------------1--11-1-11111---|
E|--------------------------------------------|

Guitar 2 
      **            **             **
e|-------------|-------------|--------------|--------|
B|-------------|-------------|--------------|--------|
G|-------------|-------------|--------------|--------|   
D|-3--33-3--3--|-5--55--5--5-|--8--88--8-8--|-3-x-3--|
A|-1--11-1--1--|-3--33--3--3-|--5--55--5-5--|-1-x-1--|
E|-------------|-------------|-----------------------|

Guitar 1

e|---------------------------------------------------------------|
B|---------------------------------------------------------------|
G|--10p9-----10p9-----10p9-----10p9-----10p9-----10p9-----10p9---|
D|------10-------10-------10-------10-------10-------10-------12-|
A|---------------------------------------------------------------|
E|---------------------------------------------------------------|

                                ******
e|---------------------------------------------------------|
B|---------------------------------------------------------|
G|-10p9-----10p9-----10p9-----9---9--9--9----10--13---9----|
D|-----12-------12------------10--10-10-10---10--10---10---|
A|---------------------------------------------------------|
E|---------------------------------------------------------|

Guitar 2 
      **            **             **
e|-------------|-------------|--------------|----------------------|
B|-------------|-------------|--------------|----------------------|
G|-------------|-------------|--------------|-5--555555--5-5-5--5--|   
D|-3--33-3--3--|-5--55--5--5-|--8--88--8-8--|-5--555555--5-5-5--5--|
A|-3--33-3--3--|-3--33--3--3-|--5--55--5-5--|-3--333333--3-3-3--3--|
E|-1--11-1--1--|-------------|----------------3--333333--3-3-3--3--|

Guitar 1 and Guitar 2

e|-------------------------------|
B|-------------------------------|
G|-10--x---10--------------------|
D|-10--x---10-----------3--------|
A|-8---x---8------------1--------|
E|-8---x---8---------------------|

Verse

Izinkan aku memuja wajahmu...

Guitar 1 

e|-------------------------------------|
B|-------8-----------------------6-----|
G|----10-------------7-9-------7-------|
D|---10------------10---------8--------|
A|-8------------10----------8----------|
E|-------------------------------------|

Keayuan wajahmu mempersona...

e|-----------------------------------|
B|-----6-8-------------------6-------|
G|----------------7-9------7---------|     
D|----7---------10--------8----------|     2x
A|--8--------10---------8------------|
E|-----------------------------------|

Guitar 2 

Izinkan aku memuja wajahmu...

e|-------------------|
B|-------------------|
G|--3---------5------|
D|--3----3----5------|      3x
A|--1----3----3------|
E|--1----1----3------|


e|--------------------|
B|--------------------|
G|--9999--9999---5----|
D|--9999--9999---5----|   
A|--7777--7777---3----|
E|--------------------|

Chorus

Guitar 1 

e|---------------------------------------------------------------|
B|---------------------------------------------------------------|
G|--10p9-----10p9-----10p9-----10p9-----10p9-----10p9-----10p9---|
D|------10-------10-------10-------10-------10-------10-------12-|
A|---------------------------------------------------------------|
E|---------------------------------------------------------------|

e|--------------------------------------------|
B|--------------------------------------------|
G|-10p9-----10p9-----10p9---------------------|
D|-----12-------12------------3--33-3--333----|
A|----------------------------1--11-1--111----|
E|--------------------------------------------|


e|---------------------------------------------------------------|
B|---------------------------------------------------------------|
G|--10p9-----10p9-----10p9-----10p9-----10p9-----10p9-----10p9---|
D|------10-------10-------10-------10-------10-------10-------12-|
A|---------------------------------------------------------------|
E|---------------------------------------------------------------|

                                 *****
e|--------------------------------------------|
B|--------------------------------------------|
G|-10p9-----10p9-----10p9---------------------|
D|-----12-------12------------3--33333-3------|
A|----------------------------1--11111-1------|
E|--------------------------------------------|

e|---------------------------------------------------------------|
B|---------------------------------------------------------------|
G|--10p9-----10p9-----10p9-----10p9-----10p9-----10p9-----10p9---|
D|------10-------10-------10-------10-------10-------10-------12-|
A|---------------------------------------------------------------|
E|---------------------------------------------------------------|

                                 **
e|--------------------------------------------|
B|--------------------------------------------|
G|-10p9-----10p9-----10p9---------------------|
D|-----12-------12------------3--33-3--333----|
A|----------------------------1--11-1--111----|


e|---------------------------------------------------------------|
B|---------------------------------------------------------------|
G|--10p9-----10p9-----10p9-----10p9-----10p9-----10p9-----10p9---|
D|------10-------10-------10-------10-------10-------10-------12-|
A|---------------------------------------------------------------|
E|---------------------------------------------------------------|
E|---------------------------------------------------------------|

e|----------------------------------------=======----|
B|----------------------------5--555555--5-5-5--5--=-|
G|-10p9-----10p9-----10p9-----5--555555--5-5-5--5----|
D|-----12-------12------------3--333333--3-3-3--3----|
A|----------------------------3--333333--3-3-3--3----|


Guitar 2 
e|-------------|--------------|--------------|---------------|
B|-------------|--------------|--------------|---------------|
G|-------------|--5--55-5--5--|--8--88-8--8--|---------------|
D|-3--33-3--3--|--5--55-5--5--|--8--88-8--8--|--3--3333333---| 3x
A|-3--33-3--1--|--3--33-3--3--|--5--55-5--5--|--3--3333333---|
E|-1--11-1--1--|--3--33-3--3--|--5--55-5--5--|--1--1111111---|

e|-------------|--------------|--------------|-----------------------|
B|-------------|--------------|--------------|-----------------------|
G|-------------|--5--55-5--5--|--8--88-8--8--|--5--555555--5-5-5--5--|
D|-3--33-3--3--|--5--55-5--5--|--8--88-8--8--|--5--555555--5-5-5--5--|
A|-3--33-3--3--|--3--33-3--3--|--5--55-5--5--|--3--333333--3-3-3--3--|
E|-1--11-1--1--|--3--33-3--3--|--5--55-5--5--|--3--333333--3-3-3--3--|


Guitar 1 and Guitar 2 

e|----------------|
B|----------------|
G|--10--x-x--10---|
D|--10--x-x--10---|
A|--8---x-x--8----|
E|--8---x-x--8----|


Repeat Verse


Chorus 2

Guitar 1
                                                                  *   **
e|-------------------------------------------------------------------------|
B|----10p9----10p9---------10p9----10p9---------10p9----10p9---------------|
G|--------10------10----5------10------10----8------12------12-------------|
D|-3--------------------5--------------------8------------------3-33--333--|
A|-3--------------------3--------------------5------------------1-11--111--|
E|-1--------------------3--------------------5-----------------------------|

                                                                  *****
e|-------------------------------------------------------------------------|
B|----10p9----10p9---------10p9----10p9---------10p9----10p9---------------|
G|--------10------10----5------10------10----8------12------12-------------|
D|-3--------------------5--------------------8------------------3-33333----|
A|-3--------------------3--------------------5------------------1-11111----|

                                                                 *    **
e|-------------------------------------------------------------------------|
B|----10p9----10p9---------10p9----10p9---------10p9----10p9---------------|
G|--------10------10----5------10------10----8------12------12-------------|
D|-3--------------------5--------------------8------------------3-33--333--|
A|-3--------------------3--------------------5------------------1-11--111--|
E|-1--------------------3--------------------5-----------------------------|

e|--------------------------------------------------------------|
B|----10p9----10p9---------10p9----10p9---------10p9----10p9----|
G|--------10------10----5------10------10----8------12------12--|
D|-3--------------------5--------------------8------------------|
A|-3--------------------3--------------------5------------------|
E|-1--------------------3--------------------5------------------|

Guitar 2 
e|-------------|--------------|--------------|---------------|
B|-------------|--------------|--------------|---------------|
G|-------------|--5--55-5--5--|--8--88-8--8--|---------------|
D|-3--33-3--3--|--5--55-5--5--|--8--88-8--8--|--3--33--333---| 
A|-3--33-3--1--|--3--33-3--3--|--5--55-5--5--|--3--33--333---|
E|-1--11-1--1--|--3--33-3--3--|--5--55-5--5--|--1--11--111---|

e|-------------|--------------|--------------|---------------|
B|-------------|--------------|--------------|---------------|
G|-------------|--5--55-5--5--|--8--88-8--8--|---------------|
D|-3--33-3--3--|--5--55-5--5--|--8--88-8--8--|--3--3333333---| 
A|-3--33-3--1--|--3--33-3--3--|--5--55-5--5--|--3--3333333---|
E|-1--11-1--1--|--3--33-3--3--|--5--55-5--5--|--1--1111111---|

e|-------------|--------------|--------------|---------------|
B|-------------|--------------|--------------|---------------|
G|-------------|--5--55-5--5--|--8--88-8--8--|---------------|
D|-3--33-3--3--|--5--55-5--5--|--8--88-8--8--|--3--33--333---| 
A|-3--33-3--1--|--3--33-3--3--|--5--55-5--5--|--3--33--333---|
E|-1--11-1--1--|--3--33-3--3--|--5--55-5--5--|--1--11--111---|

e|-------------|--------------|--------------|----------------------|
B|-------------|--------------|--------------|----------------------|
G|-------------|--5--55-5--5--|--8--88-8--8--|--5--555555-5-5-5--5--|
D|-3--33-3--3--|--5--55-5--5--|--8--88-8--8--|--5--555555-5-5-5--5--| 
A|-3--33-3--1--|--3--33-3--3--|--5--55-5--5--|--3--333333-3-3-3--3--|
E|-1--11-1--1--|--3--33-3--3--|--5--55-5--5--|--3--333333-3-3-3--3--|

SOLO 

Guitar 1 

e|--------------------------------------------------|
B|--------------------------------------------------|
G|--10-9p10------\14---------9-10---9p10-------\15--|
D|----------10--------------------------10----------|
A|--------------------------------------------------|
E|--------------------------------------------------|

e|---------------------------------|
B|---------------------------------|
G|--9-10-9-\12---10-9p10------10---|
D|-----------------------10---12---|
A|---------------------------------|
E|---------------------------------|

e|-------------------------------------|
B|-------------------------------------|
G|-10-x--10-x--10-x--10-x---12-12--10--|
D|-x--x--x--x--x--x--x--x---x--x---x---|  3x
A|-8--x--8--x--8--x--8--x---10-10--8---|
E|-------------------------------------|

e|---------------------------|
B|---------------------------|
G|-10-10-10---9-9--8-----10--|
D|-x--x--x----x-x--x-----10--|
A|-8--8--8----7-7--5-----8---|
E|-----------------------8---|

Guitar 2 

e|-------------|--------------|--------------|---------------|
B|-------------|--------------|--------------|---------------|
G|-------------|--5--55-5--5--|--8--88-8--8--|---------------|
D|-3--33-3--3--|--5--55-5--5--|--8--88-8--8--|--3--33--333---| 
A|-3--33-3--1--|--3--33-3--3--|--5--55-5--5--|--3--33--333---|
E|-1--11-1--1--|--3--33-3--3--|--5--55-5--5--|--1--11--111---|

e|------------|------------|------------|-------------------|
B|------------|------------|------------|-------------------|
G|------------|--5-5-5-55--|--8-8-8-88--|--5555555-10-------|
D|-3-3-3--33--|--5-5-5-55--|--8-8-8-88--|--5555555-10-------| 
A|-3-3-3--31--|--3-3-3-33--|--5-5-5-55--|--3333333-8--------|
E|-1-1-1--11--|--3-3-3-33--|--5-5-5-55--|--3333333-8--------|

Repeat Chorus 2

Outro 

Guitar 1 and guitar 2

e|------------------------------------|
B|------------------------------------|
G|-10-10-10-10---10-10-10-10-------8--|
D|-10-10-10-10---10-10-10-10-------8--|
A|-8--8--8--8----8--8--8--8--------5--|
E|-8--8--8--8----8--8--8--8--------5--|

Guitar 1

e|----------------|
B|--5-6-----------|
G|-------5--------|
D|----------------|
A|----------------|
E|----------------|
Добавлено: 03.07.2013
Вам также может быть интересно:
Другие материалы по этой песне:
  • Аккорды и текст

Страница создана 03.07.2013
http://primanota.ru/o-two/imago-drastik-chords.htm
Привет, Гость.
Предлагаем пройти революционный курс по гитаре.
Подарок от PrimaNota.Ru, забирай!