PrimaNota.ru - самый крупный в мире бесплатный архив песенных текстов, аккордов, табулатур и нот


O M D - Souvenir - таба, видео

Регистрация Запомнить меня
Войти через:  Facebook Google Twitter Vk Yandex Mail.ru

O M D - Souvenir - таба, видео

Печатать
Просмотров: 134
Title: Souvenir
Band: Orchestral Manoeuvres In The Dark
Album: Best Of (1988)

tabbed by scef (email: funnell_teen_spirit@yahoo.com)

ok I'm pretty sure this isn't completely accurate
(especially the chord bit) but I think the 'riffs' are
correct...probably needs amendments

intro and under main 'riff' (not sure about this but
sounds close)
e-9--9--9--9--9--9--9--9--|-4-4-4-4-4-4-4-4-|
B-11-11-11-11-11-11-11-11-|-4-4-4-4-4-4-4-4-|
G-10-10-10-10-10-10-10-10-|-5-5-5-5-5-5-5-5-|
D-11-------11-------11----|-6-----6-----6---|
A-------------------------|-----------------|
E-------------------------|-----------------|

e-4-4-4-4-4-4-4-4-|-----------------|
B-7-7-7-7-7-7-7-7-|-1-1-1-1-1-1-1-1-|
G-5-5-5-5-5-5-5-5-|-1-1-1-1-1-1-1-1-|
D-4-----4-----4---|-3-3-3-3-3-3-3-3-|
A-----------------|-4-----4-----4---|
E-----------------|-----------------|

main 'riff'
e-----|-----------------|-----------------|
B-----|-6-7-6-----------|-----------------|
G-----|-------6---5---6-|-----------------|
D-4-6-|-----------------|-------------4-6-|
A-----|-----------------|-----------------|
E-----|-----------------|-----------------|

e---4-------------|-----------------|
B-----7-6---4-----|-4---6-----------|
G---------------6-|-----------------|
D-----------------|-------6-----4-6-|
A-----------------|-----------------|
E-----------------|-----------------|

e-----------------|-----------------|
B-7-6-4-----------|-----------------|
G-------6---5---6-|-----------------|
D-----------------|-------------4-6-|
A-----------------|-----------------|
E-----------------|-----------------|

e---4-------------|------------|
B-----7-6---4-----|-6----------|
G---------------6-|------------|
D-----------------|------------|
A-----------------|------------|
E-----------------|------------|

bit under vocals (again not sure about this bit) -
play twice
e-----------------|-----------------|
B-6-6-6-6-6-6-6-6-|-----------------|
G-6-6-6-6-6-6-6-6-|-5-5-5-5-5-5-5-5-|
D-4-4-4-4-4-4-4-4-|-6-6-6-6-6-6-6-6-|
A-----------------|-4-4-4-4-4-4-4-4-|
E-----------------|-----------------|

e-----------------|-----------------|
B-7-7-7-7-7-7-7-7-|-7-7-7-7-7-7-7-7-|
G-6-6-6-6-6-6-6-6-|-6-6-6-6-6-6-6-6-|
D-4-4-4-4-4-4-4-4-|-4-4-4-4-4-4-4-4-|
A-----------------|-----------------|
E-----------------|-----------------|

e-----------------|-----------------|
B-6-6-6-6-6-6-6-6-|-----------------|
G-6-6-6-6-6-6-6-6-|-5-5-5-5-5-5-5-5-|
D-4-4-4-4-4-4-4-4-|-6-6-6-6-6-6-6-6-|
A-----------------|-4-4-4-4-4-4-4-4-|
E-----------------|-----------------|

e-----------------|-----------------|
B-----------------|-----------------|
G-1-1-1-1-1-1-1-1-|-1-1-1-1-1-1-1-1-|
D-3-3-3-3-3-3-3-3-|-3-3-3-3-3-3-3-3-|
A-4-4-4-4-4-4-4-4-|-4-4-4-4-4-4-4-4-|
E-----------------|-----------------|

the bit after "leading me astray"
e---------------|---------4-----|
B-------------4-|-6-----------4-|
G-----------6---|---6-------6---|
D---------6-----|-----6---------|
A---------------|---------------|
E---------------|---------------|

e---------------|---------------|
B-6-------------|---------------|
G---6-----------|---------------|
D-----6-------4-|-3-------------|
A---------------|---------------|
E---------------|---------------|

instrumental break - sustained organ chords which I
think are these (play twice)
e---------------|---------------|
B-6-------------|---------------|
G-6-------------|---------------|
D-4-------------|---------------|
A---------------|---------------|
E---------------|---------------|

e---------------|---------------|
B---------------|---------------|
G-5-------------|---------------|
D-6-------------|---------------|
A-4-------------|---------------|
E---------------|---------------|

all that remains has already been tabbed above. sorry
if it's out but it's pretty close...enjoy


     
Добавлено: 18.09.2013
Другие материалы по этой песне:
  • Аккорды и текст

Страница создана 18.09.2013
http://primanota.ru/o-m-d/souvenir-chords.htm
Привет, Гость.
Предлагаем пройти революционный курс по гитаре.
Подарок от PrimaNota.Ru, забирай!