PrimaNota.ru - самый крупный в мире бесплатный архив песенных текстов, аккордов, табулатур и нот


O C Supertones - Grounded - таба, видео

Регистрация Запомнить меня
Войти через:  Facebook Google Twitter Vk Yandex Mail.ru

O C Supertones - Grounded - таба, видео

Печатать
Просмотров: 68
ARTIST: The O.C Supertones
SONG: Grounded
ALBUM: Chase The Sun
mxplaid88@hotmail.com

Standard Tuning

x - palm mute

INTRO - 2x
                    2x
  E|-----------------------------------|
  B|-----------------------------------|
  G|-----------------------------------|
  D|----------5-5-------------7-7-9-9--|
  A|------7-7-----7-7-5-5-4-4-7-7-9-9--|
  E|--4-4---------------------5-5-7-7--|
      x x x x x x x x x x x x

                    4x
  E|-----------------------------------|
  B|-----------------------------------|
  G|-----------------------------------|
  D|----------5-5----------------------|
  A|------7-7-----7-7-5-5-4-4----------|
  E|--4-4---------------------5-5-7-7--|

               G#5,B5,G5,A5

VERSE - 8x          FILL - 2x

  Em,C#m,Dm           G#5,B5,G5,A5

CHORUS - 2x          For the BRIDGE
                     just play an Em
  G#5,B5,G5,A5

INTERLUDE - 1x
                    3x
  E|-----------------------------------|
  B|-----------------------------------|
  G|-----------------------------------|
  D|----------5-5----------------------|
  A|------7-7-----7-7-5-5-4-4----------|
  E|--4-4---------------------5-5-7-7--|
      x x x x x x x x x x x x x x x x

  E|-----------------------------------|
  B|-----------------------------------|
  G|--------------------------5-5-4-4--|
  D|----------5-5-----6-6-5-5----------|
  A|------7-7-----7-7------------------|
  E|--4-4------------------------------|
      x x x x x x x x

                    3x
  E|-----------------------------------|
  B|-----------------------------------|
  G|-----------------------------------|
  D|----------5-5----------------------|
  A|------7-7-----7-7-5-5-4-4----------|
  E|--4-4---------------------5-5-7-7--|

  E|-----------------------------------|
  B|-----------------------------------|
  G|--------------------------5-5-4-4--|
  D|----------5-5-----6-6-5-5----------|
  A|------7-7-----7-7------------------|
  E|--4-4------------------------------|

                    4x
  E|-----------------------------------|
  B|-----------------------------------|
  G|-----------------------------------|
  D|----------5-5----------------------|
  A|------7-7-----7-7-5-5-4-4----------|
  E|--4-4---------------------5-5-7-7--|

The parts go like this:

INTRO          1x
VERSE          1x
FILL           1x
VERSE          1x
CHORUS         1x
BRIDGE
VERSE          1x
FILL           1x
CHORUS         2x
BRIDGE
INTERLUDE      1x
CHORUS         2x

_________________________________________________________________
     
Добавлено: 03.09.2013
Вам также может быть интересно:
Другие материалы по этой песне:
  • Аккорды и текст

Страница создана 27.08.2013
http://primanota.ru/o-c-supertones/grounded-chords.htm
Привет, Гость.
Предлагаем пройти революционный курс по гитаре.
Подарок от PrimaNota.Ru, забирай!