PrimaNota.ru - самый крупный в мире бесплатный архив песенных текстов, аккордов, табулатур и нот


Nx Zero - Incompleta - таба, видео

Регистрация Запомнить меня
Войти через:  Facebook Google Twitter Vk Yandex Mail.ru

Nx Zero - Incompleta - таба, видео

Печатать
Просмотров: 121
NOTA: As batidas de alguns trechos não estão certas, mas só escutar a música
 junta para acertar o tempo.

Intro
guitarra 1
E:||----------------------------------------------|
B:||----------------------------------------------|
G:||-12-12-12-12-12/8-8/12-12-12-12-12-12/8-8-8-8-|
D:||-xxxxxxxxxxxxxxxxxx/10-10-xxxxxxxxxxxxxxxxxxx-|
A:||-10-10-10-10-10/6-6-------10-10-10-10/6-6-6-6-|
E:||----------------------------------------------|

introdução com todos os intrumentos

guitarra 1

E:||-------------------------------------------------------------------------|
B:||-------------------------------------------------------------------------|
G:||-1212121213131313138888881010101010xx121212121212131313131388888810101010
D:||-xxxxxxxxxxxxxxxxxxxxxxxxxxxxxxxxxxxxxxxxxxxxxxxxxxxxxxxxxxxxxxxxxxxxxxxx
A:||-1010101011111111116666668888888888xx101010101010111111111166666688888888
E:||-------------------------------------------------------------------------

guitarra 2

         C     Ab      Eb     Bb  (-)  c      Ab      Eb     Bb
E:||-------------------------------------------------------------------------|
B:||-------------------------------------------------------------------------|
G:||----------------8888888-------------------------8888888------------------|
D:||-10101010666666688888888888888xx10101010666666688888888888888------------|
A:||-10101010666666666666668888888xx10101010666666666666668888888------------|
E:||-888888884444444-------6666666xx888888884444444-------6666666------------|


VERSO

Eb
Por tudo que falou (e deixou pra trás)
página 1Ab
Por tudo que lutou (e não foi capaz)
Eb
De assumir que errou (e tentar mudar)
Ab
De que vale (se arrepender agora)

REFRÃO

Guitarra 2

Eb            Ab
Nunca mais me deixe
          Bb        Ab
pois essa dor é tão forte


Guitarra 1

E:||------------------------------------------------------------------|
B:||------------------------------------------------------------------|
G:||-12-12-12-13-13-13-10-10-10/8/12/10-------------------------------|
D:||xxxxxxxxxxxxxxxxxxxxxxxxxxxxxxxxxx--------------------------------|
A:||-10-10-10-11-11-11--8--8--8/6/10/8--------------------------------|
E:||------------------------------------------------------------------|

RIFF pra voltar no verso


guitarra 1
E:||----------------------------------------------|
B:||----------------------------------------------|
G:||-12-12-12-12-12/8-8/12-12-12-12-12-12/8-8-8-8-|
D:||-xxxxxxxxxxxxxxxxxx/10-10-xxxxxxxxxxxxxxxxxxx-|
A:||-10-10-10-10-10/6-6-------10-10-10-10/6-6-6-6-|
E:||----------------------------------------------|


VERSO 2

Eb
Difícil olhar pra trás e descobrir
página 2Ab
que só agora tudo faz sentido
Eb
E uma volta a mais é impossível
Ab
De que vale (se arrepender agora)


REFRÃO

Guitarra 2

Eb            Ab
Nunca mais me deixe
          Bb        Ab
pois essa dor é tão forte


Guitarra 1

E:||------------------------------------------------------------------|
B:||------------------------------------------------------------------|
G:||-12-12-12-13-13-13-10-10-10/8/12/10-------------------------------|
D:||xxxxxxxxxxxxxxxxxxxxxxxxxxxxxxxxxx--------------------------------|
A:||-10-10-10-11-11-11--8--8--8/6/10/8--------------------------------|
E:||------------------------------------------------------------------|

DEPOIS DO REFRÃO

guitarra 2

         C     Ab      Eb     Bb  (-)  c      Ab      Eb     Bb
E:||-------------------------------------------------------------------------|
B:||-------------------------------------------------------------------------|
G:||----------------8888888-------------------------8888888------------------|
D:||-10101010666666688888888888888xx10101010666666688888888888888------------|
A:||-10101010666666666666668888888xx10101010666666666666668888888------------|
E:||-888888884444444-------6666666xx888888884444444-------6666666------------|

C                                       Ab
Olhe para o mundo e diga o que você não quer falar
           Eb             Bb
porque sua vida está incompleta
C                                       Ab
olhe para o mundo e diga o que você não quer falar
           Eb             Bb
porque sua vida está incompleta


Guitarra 1

E:||------------------------------------------------------------------|
B:||------------------------------------------------------------------|
G:||-151515-131313-12121212121212xx151515151313131212121212121212-----|
D:||-xxxxxxxxxxxxxxxxxxxxxxxxxxxxxxxxxxxxxxxxxxxxxxxxxxxxxxxxxxxx-----|
A:||-131313-111111-10101010101010xx131313131111111010101010101010-----|
E:||------------------------------------------------------------------|

RIFF QUE AS DUAS GUITARRAS FAZEM DEPOIS

E:||------------------------------------------------------------------|
B:||------------------------------------------------------------------|
G:||------------------------------------------------------------------|
D:||-1212x1212x1212x1212x88x88x44x44x---------------------------------|
A:||-xxxxxxxxxxxxxxxxxxxxxxxxxxxxxxxx---2X----------------------------|
E:||-1010x1010x1010x1010x66x66x22x22x---------------------------------|

Guitarra 2

Bb                                    C
Um caminho, um lugar (onde está você?)
                                       Ab
uma chance, um sinal (onde está você ?)
                              Eb       Bb
e um momento onde o sonho acabooooooooou

Guitarra 1

E:||--------------------------------------------------------------------------|
B:||--------------------------------------------------------------------------|
G:||151515151513131313131212121212128101515151515-1313131313-1212121212121010-|
D:||xxxxxxxxxxxxxxxxxxxxxxxxxxxxxxxxxxxxxxx2VZxxxxxxxxxxxxxxxxxxxxxxxxxxxxxxx-|
A:||1313131313111111111110101010101068-1313131313-1111111111-101010101010-8-8-|
E:||--------------------------------------------------------------------------|


Daí pra frente as guitarras seguem as partes anteriores, não tem erro.


Eb            Ab
Nunca mais me deixe
Eb            Ab
nunca mais me deixe
          Bb        Ab
pois essa dor é tão forte

Olhe para o mundo e diga o que você não quer falar
porque sua vida está incompleta
olhe para o mundo e diga o que você não quer falar
porque sua vida está incompleta

Olhe para o mundo e diga o que você não quer falar
porque sua vida está incompleta
olhe para o mundo e diga o que você não quer falar
porque sua vida está incompleta


E é isso aí galera, agora é só pegar a guitarra ou o violão e mandar ver porque a
música é muito fera.
Добавлено: 08.04.2012
Другие материалы по этой песне:
  • Аккорды и текст

Страница создана 08.04.2012
http://primanota.ru/nx-zero/incompleta-chords.htm
Привет, Гость.
Предлагаем пройти революционный курс по гитаре.
Подарок от PrimaNota.Ru, забирай!