PrimaNota.ru - самый крупный в мире бесплатный архив песенных текстов, аккордов, табулатур и нот


Nwa - Appetite For Destruction - текст песни, бас-таба, видео

Регистрация Запомнить меня
Войти через:  Facebook Google Twitter Vk Yandex Mail.ru

Nwa - Appetite For Destruction - текст песни, бас-таба, видео

Печатать
Просмотров: 89
Tabbed by: 6METAL6BASSIST6
E-mail: petergriffinav@gmail.com

Tuning: EADG

0:10

G|----------------------------------------------------------------|
D|--------5-----4-------------------------5-----4-----------------| x4
A|2-------------------3-----------2-------------------3-----------|
E|--------------------------5-------------------------------5-----|

G|----------------------------------------------------------------|
D|----------------------------------------------------------------|
A|----------------------------------------------------------------|
E|----------------------------------------------------------------|

G|----------------------------------------------------------------|
D|----------------------------------------------------------------|
A|----------------------------------------------------------------|
E|----------------------------------------------------------------|

G|----------------------------------------------------------------|
D|--------5-----4-------------------------5-----4-----------------| x2
A|2-------------------3-----------2-------------------3-----------|
E|--------------------------5-------------------------------5-----|




1:03

G|--------------------------------|
D|--------------------------------|
A|--------------------------------|
E|5-4-----5-4-----4---------------|

G|----------------------------------------------------------------|
D|--------5-----4-------------------------5-----4-----------------| x4
A|2-------------------3-----------2-------------------3-----------|
E|--------------------------5-------------------------------5-----|

G|----------------------------------------------------------------|
D|----------------------------------------------------------------|
A|----------------------------------------------------------------|
E|----------------------------------------------------------------|

G|----------------------------------------------------------------|
D|----------------------------------------------------------------|
A|----------------------------------------------------------------|
E|----------------------------------------------------------------|

G|----------------------------------------------------------------|
D|--------5-----4-------------------------5-----4-----------------| x2
A|2-------------------3-----------2-------------------3-----------|
E|--------------------------5-------------------------------5-----|

G|----------------------------------------------------------------|
D|----------------------------------------------------------------|
A|----------------------------------------------------------------|
E|----------------------------------------------------------------|

G|----------------------------------------------------------------|
D|----------------------------------------------------------------|
A|----------------------------------------------------------------|
E|----------------------------------------------------------------|

G|----------------------------------------------------------------|
D|--------5-----4-------------------------5-----4-----------------| x2
A|2-------------------3-----------2-------------------3-----------|
E|--------------------------5-------------------------------5-----|

G|----------------------------------------------------------------|
D|----------------------------------------------------------------|
A|----------------------------------------------------------------|
E|----------------------------------------------------------------|

G|----------------------------------------------------------------|
D|----------------------------------------------------------------|
A|----------------------------------------------------------------|
E|----------------------------------------------------------------|

2:08

G|----------------------------------------------------------------|
D|--------5-----4-------------------------5-----4-----------------| x6
A|2-------------------3-----------2-------------------3-----------|
E|--------------------------5-------------------------------5-----|

G|----------------------------------------------------------------|
D|----------------------------------------------------------------|
A|----------------------------------------------------------------|
E|----------------------------------------------------------------|

G|----------------------------------------------------------------|
D|----------------------------------------------------------------|
A|----------------------------------------------------------------|
E|----------------------------------------------------------------|

G|----------------------------------------------------------------|
D|--------5-----4-------------------------5-----4-----------------| x4
A|2-------------------3-----------2-------------------3-----------|
E|--------------------------5-------------------------------5-----|

G|----------------------------------------------------------------|
D|--------5-----4-------------------------5-----4-----------------|
A|2-------------------3-----------2-------------------3-----------|
E|--------------------------5-------------------------------------|
Добавлено: 06.08.2015
Вам также может быть интересно:
Другие материалы по этой песне:
  • Аккорды и текст

Страница создана 16.06.2012
http://primanota.ru/nwa/appetite-for-destruction-chords.htm
Привет, Гость.
Предлагаем пройти революционный курс по гитаре.
Подарок от PrimaNota.Ru, забирай!