PrimaNota.ru - самый крупный в мире бесплатный архив песенных текстов, аккордов, табулатур и нот


Nunslaughter - Raid The Convent - текст песни, таба, видео

Регистрация Запомнить меня
Войти через:  Facebook Google Twitter Vk Yandex Mail.ru

Nunslaughter - Raid The Convent - текст песни, таба, видео

Печатать
Просмотров: 86
Band:  Nunslaughter
Album: Goat
Song:  Raid the Convent

Copyright (c) Revenge Productions 2003
Version 1.0 - 6/29/2009

nunslaughter.com

.  - palm mute           /  - slide up to
\  - slide down to       ~  - vibrato
h  - hammer on           b  - Bend
p  - pull off            Suffixes for bend
t  - tap                 f  - full bend    h - half bend
ph - pinched harmonic    q  - quarter bend t - tap bend
*  - see comment         ^  - Hold bend    r release bend
x  - Stuccatto           ~  - vibrato bend
,  - slight palm mute    () - ghost note, sustained note
"  - tremolo note        <> - Trill


Tuning: DGCFAD

 Riff 1
|-------------------------|
|-------------------------|
|-------------------------|
|----------3--2-----------|
|----1--0--------1--0--3--|
|-0-----------------------|
  "  "  "  "  "  "  "  "

 Fill 1
|-------------------------|
|-------------------------|
|-------------------------|
|-------------------------|
|-2=============(2)-------|
|-0=============(0)-------|

 Riff 2
|-------------------------|
|-------------------------|
|-------------------------|
|-------------------------|
|-2-----------------------|
|-0-------------------/6\-|

 Riff 3
|-----------------------|
|-----------------------|
|-----------------------|
|-----------------------|
|-2---5-2---5-2-5-6--5--|
|-0---3-0---3-0-3-4--3--|

 Riff 4
|-----------------------|
|-----------------------|
|-----------------------|
|-----------------------|
|-----------------------|
|-0---3-0---3-0-3-4--3--|
  "   " "   " " " "  "
pm.   . .   . . . .  .

 Riff 5
|-------------------------------------------------------------|
|-------------------------------------------------------------|
|-------------------------------------------------------------|
|-----------------------------------5-7-8--7------------------|
|-----3-5-6--5----------3-2---------3-5-6--5----------3-2-----|
|-0-0-----------0-0-0-0-1-0-0-0-0-0-----------0-0-0-0-1-0-0-0-|
pm. .           . . . .     . . . .           . . . .     . .

|-------------------------------------------------------------|
|-------------------------------------------------------------|
|-------------------------------------------------------------|
|-----------------------------------5-7-8--7------------------|
|-----5-7-8--7----------3-2---------3-5-6--5----------3-2-----|
|-0-0-3-5-6--5--0-0-0-0-1-0-0-0-0-0-----------0-0-0-0-1-0-0-0-|
pm. .           . . . .     . . . .           . . . .     . .

|-------------------------------------------------------------|
|-------------------------------------------------------------|
|-------------------------------------------------------------|
|-----------------------------------5-7-8--7------------------|
|-----5-7-8--7----------3-2---------3-5-6--5----------3-2-----|
|-0-0-3-5-6--5--0-0-0-0-1-0-0-0-0-0-----------0-0-0-0-1-0-0-0-|
pm. .           . . . .     . . . .           . . . .     . .

|-------------------------------------------------------------|
|-------------------------------------------------------------|
|-------------------------------------------------------------|
|-----------------------------------5-7-8--7------------------|
|-----5-7-8--7----------3-2---------3-5-6--5----------3-2-----|
|-0-0-3-5-6--5--0-0-0-0-1-0-0-0-0-0-----------0-0-0-0-1-0-0-0-|
pm. .           . . . .     . . . .           . . . .     . .

|---------------|
|---------------|
|---------------|
|---------------|
|-----3-5-6--5--|
|-0-0-----------|
pm. .

 Fill 2
|-----------------|
|-----------------|
|-----------------|
|-----------------|
|-----3-5-6--5--2-|
|-0-0-----------0-|
pm. .

Structure:
Riff 1 x4
Fill 1 x1
Riff 2 x2
Riff 3 x4
Riff 4 x4
Riff 5 x1
Riff 1 x4
Fill 1 x1
Riff 2 x2
Riff 3 x4
Riff 4 x4
Fill 2 x1
Добавлено: 23.06.2016
Другие материалы по этой песне:
  • Аккорды и текст

Страница создана 26.02.2012
http://primanota.ru/nunslaughter/raid-the-convent-chords.htm
Привет, Гость.
Предлагаем пройти революционный курс по гитаре.
Подарок от PrimaNota.Ru, забирай!