PrimaNota.ru - самый крупный в мире бесплатный архив песенных текстов, аккордов, табулатур и нот


Nudeswirl - Gordons Corner - таба, видео

Регистрация Запомнить меня
Войти через:  Facebook Google Twitter Vk Yandex Mail.ru

Nudeswirl - Gordons Corner - таба, видео

Печатать
Просмотров: 63
By ear... this is a very unknown grunge band from the 90s in Jersey. This is a great song, enjoy!

>Feedback< Intro
e|----------|
B|----------|
G|-9~-9br\7-|
D|----------|
A|-7~-7br\5-|
E|----------|

Intro 1     Gt. 1
e|-----------------------------|
B|-----------------------------|
G|-9p7-9p7-9p7-9p7-9p7-9p7-9b~-|  x6
D|-----------------------------|
A|-----------------------------|
E|-----------------------------|

  Gt. 2 (let each note ring out)
e|----------------------------------------|
B|----------------------------------------|
G|-11--13--11--13--14--13--14--16--14--13-|
D|----------------------------------------|
A|----------------------------------------|
E|----------------------------------------|

Gt. 1
Gradually release and pinch
e|------------------|
B|------------------|
G|-9b-9-9-9-9-9-9-9-| x1
D|------------------|
A|------------------|
E|------------------|

Gt. 1
e|-----------------------------|
B|-----------------------------|
G|-9p7-9p7-9p7-9p7-9p7-9p7-9b~-| x2
D|-----------------------------|
A|-----------------------------|
E|-----------------------------|

e|------------------------------------------|
B|------------------------------------------|
G|------------------------------------------|
D|-/9-9-9-9-9-9-9-/7-7-7-7-7-7-/7-7-7-7-7-7-|
A|-/7-7-7-7-7-7-7-/5-5-5-5-5-5-/5-5-5-5-5-5-|
E|---0-0------------------------------------|

e|--------------------------------------|
B|--------------------------------------|
G|-4-4-4-4-x-4-x-4-4--4-4-4-4-x-4-x-4-4-|
D|-4-4-4-4-x-4-x-4-4--4-4-4-4-x-4-x-4-4-|
A|-2-2-2-2-x-2-x-2-2--2-2-2-2-x-2-x-2-2-|
E|-2-2-2-2-x-2-x-2-2--2-2-2-2-x-2-x-2-2-|

Intro 2 (x2)
e|----------------------------------|
B|----------------------------------|
G|-/9-9-9-5--5-5/7-7-7-7-10-10-10-9-|
D|-/9-9-9-5--5-5/7-7-7-7-10-10-10-9-|
A|-/7-7-7-3--3-3/5-5-5-5-8--8--8--7-|
E|----------------------------------|

e|--------------------------------------|
B|--------------------------------------|
G|-/9-9-9-5--5-5/7-7-7-7-9-9-10-10/12-9-|
D|-/9-9-9-5--5-5/7-7-7-7-9-9-10-10/12-9-|
A|-/7-7-7-3--3-3/5-5-5-5-7-7-8--8-/10-7-|
E|--------------------------------------|

Intro 3
e|---0--------|
B|-1---0------|
G|-0-----1-3~-| x3
D|-2-----2----|
A|-3-----2----|
E|-------0----|

e|---0-----0-|
B|-1---0---1-|
G|-0-----1-0-|
D|-2-----2-2-|
A|-3-----2-3-|
E|-------0---|

Verse
e|-----------------------------|
B|-----------------------------|
G|-----------------------------|
D|----9----9-7-7-7-7-----------|
A|----7----7-5-5-5-5-8-8-8-7-5-|
E|-0-0-00-0----------6-6-6-5-3-|

e|------------------------------------|
B|------------------------------------|
G|----9----9-7-7-7-7-7/9-9/10-10/12-9-|
D|----9----9-7-7-7-7-7/9-9/10-10/12-9-|
A|----7----7-5-5-5-5-5/7-7/8--8-/10-7-|
E|-0-0-00-0---------------------------|

e|-----------------------------|
B|-----------------------------|
G|-----------------------------|
D|----9----9-7-7-7-7-----------|
A|----7----7-5-5-5-5-8-8-8-7-5-|
E|-0-0-00-0----------6-6-6-5-3-|

e|----------------------------------------|
B|----------------------------------------|
G|----9----9-7-7-7-7-7/9-9/10-10-10-10-10-|
D|----9----9-7-7-7-7-7/9-9/10-10-10-10-10-|
A|----7----7-5-5-5-5-5/7-7/8--8--8--8--8--|
E|-0-0-00-0-------------------------------|

Chorus
e|-------------|
B|-------------|
G|-------------| x3
D|-2-2-7-------|
A|-2-2-5-8-7-5-|
E|-0-0---6-5-3-|

then I hear this from one of the guitars...
e|---------|
B|-9-------|
G|--12-----| x1
D|-----13b-|
A|---------|
E|---------|

Solo
   Gt. 2               Gt. 1 (w/wah wah)
e|----------|-----------------------------------------------|
B|----------|-----------------------------------------------|
G|-----16w\-|--/9~-9p8p7-9p8p7-9p8p7-9p8p7-9p8p7-9p8p7-10w\-|
D|-\15b-----|-----------------------------------------------|
A|----------|-----------------------------------------------|
E|----------|-----------------------------------------------|
2nd Verse
2nd Chorus
Transition to Intro 1
e|------------------|
B|------------------|
G|----------------7-|
D|-2/4-4/5-5/7-7/9--|
A|------------------|
E|------------------|
Intro 1

Solo 2 (wah wah)
e|------------------------------------------------------7h8h10-|
B|----------------------------------7h8h10-7h8h10-7h8h10-------|
G|-------------------4h5p4h5p4-4h5h7---------------------------|
D|-------------------------------------------------------------|
A|---------2h3h5-2h3-------------------------------------------|
E|-0h2h3h5-----------------------------------------------------|

e|-15p11p9-7h9p7-4h7p6p4---------------------7--9--10-12-|
B|----------------------7p6p4----------------------------|
G|---------------------------4w---8h9h10p8h9--9---9--9---|
D|------------------------------/9-----------------------|
A|-------------------------------------------------------|
E|-------------------------------------------------------|

e|---------------------------------------------------------------|
B|-17b19-17b19-17b18-17b19--18--17p15---15p14---14\12---12\10----|
G|------------------------15--15---------------------------------|
D|------------------------------------17-----16------14------12--|
A|---------------------------------------------------------------|
E|---------------------------------------------------------------|

e|-------------------------------------------|
B|-----------------14b-11h13p11h13p11h13-----|
G|-11~-10h11-11-10----------------------13w\-|
D|-------------------------------------------|
A|-------------------------------------------|
E|-------------------------------------------|

       x3
e|------------------|-15p13p11------------------------|
B|-----14b15-------|---------13p12p11p9---------------|
G|----------15-14\-|--------------------11p10p9-6b7---|
D|-0w/-------------|----------------------------------|
A|-----------------|----------------------------------|
E|-----------------|----------------------------------|
       x3
e|-----------------|-16t-14p12p11--11-------------|
B|-----14b15-------|-------------14---14p12p11----|
G|----------15-14\-|--------------------------12b-|
D|-0w/-------------|------------------------------|
A|-----------------|------------------------------|
E|-----------------|------------------------------|
3rd Verse

Outro 1
e|--------------|
B|--------------|
G|-9-9-9-7-7-7w-| x4
D|-9-9-9-7-7-7w-|
A|-7-7-7-5-5-5w-|
E|-7-7-7-5-5-5w-|

Outro 2                              Fill
e|---------------------------------|---------|
B|---------------------------------|---------|
G|-9-9-9-9-12-12-11-11-10-10-10-10-|---------|
D|-9-9-9-9-12-12-11-11-10-10-10-10-|---------|
A|-7-7-7-7-10-10-9--9--8--8--8--8--|-5-5-5-5-|
E|---------------------------------|---------|

Outro 3
Gt. 1   Gt. 2
   x4   x4
e|-0~-|-----|
B|-5~-|-13~-|
G|-7~-|-----|
D|-5~-|-----|
A|----|-----|
E|----|-----|

Outro 4
e|-------0-|
B|-------0-|
G|-------3-|
D|-------2-|
A|-------2-|
E|-3~-2~-0-|
      Hard, hard unorthodox song. The solo isn't 100% accurate but then again it's all 
by ear! Enjoy, this is one of the harder Nudeswirl songs, but it's worth the effort!
           Order-Feedback Intro
                    Intro 1
                    Intro 2
                    Intro 3
                    Verse 1
                    Chorus 1
                    Solo 1
                    Verse 2
                    Chorus 2
                    Transition to Intro
                    Intro 1
                    Solo 2
                    Verse 3
                    Outro 1
                    Outro 2
                    Outro 3
                    Outro 4
Добавлено: 16.08.2013
Другие материалы по этой песне:
  • Аккорды и текст

Страница создана 16.08.2013
http://primanota.ru/nudeswirl/gordons-corner-chords.htm
Привет, Гость.
Предлагаем пройти революционный курс по гитаре.
Подарок от PrimaNota.Ru, забирай!