PrimaNota.ru - самый крупный в мире бесплатный архив песенных текстов, аккордов, табулатур и нот


Nuclear Assault - Brainwashed - текст песни, таба, видео

Регистрация Запомнить меня
Войти через:  Facebook Google Twitter Vk Yandex Mail.ru

Nuclear Assault - Brainwashed - текст песни, таба, видео

Печатать
Просмотров: 103
-------------------------------------------------------------------------------
Brainwashed - Nuclear Assault
-------------------------------------------------------------------------------
Tabbed by: Pus_Head
Email: AustrianJew@gmail.com

Tuning: Standard

Intro                                                                      x2
e|---------------------------------------------------------------------------|
B|---------------------------------------------------------------------------|
G|---------------------------------------------------------------------------|
D|5-5-5-5-5-5-5-5------------------------------------------------------------|
A|3-3-3-3-3-3-3-3------------------------------------------------------------|
E|---------------------------------------------------------------------------|

Verse :06                                                                  x2
e|---------------------------------------------------------------------------|
B|---------------------------------------------------------------------------|
G|---------------------------------------------------------------------------|
D|3-----1---------3-----2----------------------------------------------------|
A|2-----1---------2-----1---4-5----------------------------------------------|
E|--0-0---0-0-0-0---0-0---0-2-3----------------------------------------------|
    * *   * * * *   * *   *

e|---------------------------------------------------------------------------|
B|---------------------------------------------------------------------------|
G|---------------------------------------------------------------------------|
D|---------------------------------------------------------------------------|
A|3-----3---------3-----4---7-8----------------------------------------------|
E|1-0-0-1-0-0-0-0-1-0-0-2-0-5-6-0--------------------------------------------|
    * *   * * * *   * *   *     *

e|---------------------------------------------------------------------------|
B|---------------------------------------------------------------------------|
G|---------------------------------------------------------------------------|
D|3-----1---------3-----2----------------------------------------------------|
A|2-----1---------2-----1---4-5----------------------------------------------|
E|--0-0---0-0-0-0---0-0---0-2-3----------------------------------------------|
    * *   * * * *   * *   *

                                                                           x2           
e|---------------------------------------------------------------------------|
B|---------------------------------------------------------------------------|
G|---------------------------------------------------------------------------|
D|3-----1---------3-----2----------------------------------------------------|
A|2-----1---------2-----1---4-5----------------------------------------------|
E|--0-0---0-0-0-0---0-0---0-2-3----------------------------------------------|
    * *   * * * *   * *   *

e|---------------------------------------------------------------------------|
B|---------------------------------------------------------------------------|
G|---------------------------------------------------------------------------|
D|---------------------------------------------------------------------------|
A|3-----3---------3-----4---7-8----------------------------------------------|
E|1-0-0-1-0-0-0-0-1-0-0-2-0-5-6-0--------------------------------------------|
    * *   * * * *   * *   *     *

e|---------------------------------------------------------------------------|
B|---------------------------------------------------------------------------|
G|---------------------------------------------------------------------------|
D|3-----1---------3-----2----------------------------------------------------|
A|2-----1---------2-----1---4-5----------------------------------------------|
E|--0-0---0-0-0-0---0-0---0-2-3----------------------------------------------|
    * *   * * * *   * *   *

Chorus :27                                                                 x4
e|---------------------------------------------------------------------------|
B|---------------------------------------------------------------------------|
G|---------------------------------------------------------------------------|
D|---------------------------------------------------------------------------|
A|4-----3--------------------------------------------------------------------|
E|2-----1-----0-0-0-0-0-1-0-0------------------------------------------------|
              * * * * * * * *

Verse 2 :38                                                                x2
e|---------------------------------------------------------------------------|
B|---------------------------------------------------------------------------|
G|---------------------------------------------------------------------------|
D|3-----1---------3-----2----------------------------------------------------|
A|2-----1---------2-----1---4-5----------------------------------------------|
E|--0-0---0-0-0-0---0-0---0-2-3----------------------------------------------|
    * *   * * * *   * *   *

e|---------------------------------------------------------------------------|
B|---------------------------------------------------------------------------|
G|---------------------------------------------------------------------------|
D|---------------------------------------------------------------------------|
A|3-----3---------3-----4---7-8----------------------------------------------|
E|1-0-0-1-0-0-0-0-1-0-0-2-0-5-6-0--------------------------------------------|
    * *   * * * *   * *   *     *

e|---------------------------------------------------------------------------|
B|---------------------------------------------------------------------------|
G|---------------------------------------------------------------------------|
D|3-----1---------3-----2----------------------------------------------------|
A|2-----1---------2-----1---4-5----------------------------------------------|
E|--0-0---0-0-0-0---0-0---0-2-3----------------------------------------------|
    * *   * * * *   * *   *

                                                                           x2
e|---------------------------------------------------------------------------|
B|---------------------------------------------------------------------------|
G|---------------------------------------------------------------------------|
D|3-----1---------3-----2----------------------------------------------------|
A|2-----1---------2-----1---4-5----------------------------------------------|
E|--0-0---0-0-0-0---0-0---0-2-3----------------------------------------------|
    * *   * * * *   * *   *

e|---------------------------------------------------------------------------|
B|---------------------------------------------------------------------------|
G|---------------------------------------------------------------------------|
D|---------------------------------------------------------------------------|
A|3-----3---------3-----4---7-8----------------------------------------------|
E|1-0-0-1-0-0-0-0-1-0-0-2-0-5-6-0--------------------------------------------|
    * *   * * * *   * *   *     *

e|---------------------------------------------------------------------------|
B|---------------------------------------------------------------------------|
G|---------------------------------------------------------------------------|
D|3-----1---------3-----2----------------------------------------------------|
A|2-----1---------2-----1---4-5----------------------------------------------|
E|--0-0---0-0-0-0---0-0---0-2-3----------------------------------------------|
    * *   * * * *   * *   *

Chorus 1:00                                                                x4
e|---------------------------------------------------------------------------|
B|---------------------------------------------------------------------------|
G|---------------------------------------------------------------------------|
D|---------------------------------------------------------------------------|
A|4-----3--------------------------------------------------------------------|
E|2-----1-----0-0-0-0-0-1-0-0------------------------------------------------|
              * * * * * * * *

Break 1:11                                                                 x2
e|---------------------------------------------------------------------------|
B|---------------------------------------------------------------------------|
G|---------------------------------------------------------------------------|
D|4-------1-------4---------------4-------1-------4--------------------------|
A|2-----3---3-0---2---------0-3---2-----3---3-0---2-----2-0-3-0--------------|
E|----------------------3-0--------------------------------------------------| 
        * * * *         * * * *         * * * *         * * * *

1:21                                                                       x4
e|---------------------------------------------------------------------------|
B|---------------------------------------------------------------------------|
G|---------------------------------------------------------------------------|
D|9-----8--------------------------------------------------------------------|
A|7-----6-----8-9-------10---7-8---------------------------------------------|
E|--0-0---0-0-6-7-0-0-0-8--0-5-6---------------------------------------------|
    * *   * *     * * *    *

Intro 1:32                                                                 x2
e|---------------------------------------------------------------------------|
B|---------------------------------------------------------------------------|
G|---------------------------------------------------------------------------|
D|5-5-5-5-5-5-5-5------------------------------------------------------------|
A|3-3-3-3-3-3-3-3------------------------------------------------------------|
E|---------------------------------------------------------------------------|

Verse 3  1:35                                                              x2
e|---------------------------------------------------------------------------|
B|---------------------------------------------------------------------------|
G|---------------------------------------------------------------------------|
D|3-----1---------3-----2----------------------------------------------------|
A|2-----1---------2-----1---4-5----------------------------------------------|
E|--0-0---0-0-0-0---0-0---0-2-3----------------------------------------------|
    * *   * * * *   * *   *

e|---------------------------------------------------------------------------|
B|---------------------------------------------------------------------------|
G|---------------------------------------------------------------------------|
D|---------------------------------------------------------------------------|
A|3-----3---------3-----4---7-8----------------------------------------------|
E|1-0-0-1-0-0-0-0-1-0-0-2-0-5-6-0--------------------------------------------|
    * *   * * * *   * *   *     *

e|---------------------------------------------------------------------------|
B|---------------------------------------------------------------------------|
G|---------------------------------------------------------------------------|
D|3-----1---------3-----2----------------------------------------------------|
A|2-----1---------2-----1---4-5----------------------------------------------|
E|--0-0---0-0-0-0---0-0---0-2-3----------------------------------------------|
    * *   * * * *   * *   *

                                                                           x2
e|---------------------------------------------------------------------------|
B|---------------------------------------------------------------------------|
G|---------------------------------------------------------------------------|
D|3-----1---------3-----2----------------------------------------------------|
A|2-----1---------2-----1---4-5----------------------------------------------|
E|--0-0---0-0-0-0---0-0---0-2-3----------------------------------------------|
    * *   * * * *   * *   *

e|---------------------------------------------------------------------------|
B|---------------------------------------------------------------------------|
G|---------------------------------------------------------------------------|
D|---------------------------------------------------------------------------|
A|3-----3---------3-----4---7-8----------------------------------------------|
E|1-0-0-1-0-0-0-0-1-0-0-2-0-5-6-0--------------------------------------------|
    * *   * * * *   * *   *     *

e|---------------------------------------------------------------------------|
B|---------------------------------------------------------------------------|
G|---------------------------------------------------------------------------|
D|3-----1---------3-----2----------------------------------------------------|
A|2-----1---------2-----1---4-5----------------------------------------------|
E|--0-0---0-0-0-0---0-0---0-2-3----------------------------------------------|
    * *   * * * *   * *   *

Chorus 1:56                                                                x4
e|---------------------------------------------------------------------------|
B|---------------------------------------------------------------------------|
G|---------------------------------------------------------------------------|
D|---------------------------------------------------------------------------|
A|4-----3--------------------------------------------------------------------|
E|2-----1-----0-0-0-0-0-1-0-0------------------------------------------------|
              * * * * * * * *
Outro 2:07                                                                 x2
e|---------------------------------------------------------------------------|
B|---------------------------------------------------------------------------|
G|---------------------------------------------------------------------------|
D|--------------------------3------------------------------------------------|
A|--------------------------2------------------------------------------------|
E|6-0-0-0-5-0-0-0-0-0-1-0-0---0-0--------------------------------------------|
  * * * * * * * * * * * * *   * *

End 2:07                                                                   x2
e|---------------------------------------------------------------------------|
B|---------------------------------------------------------------------------|
G|---------------------------------------------------------------------------|
D|5-5-5-5-5-5-5-5------------------------------------------------------------|
A|3-3-3-3-3-3-3-3------------------------------------------------------------|
E|---------------------------------------------------------------------------|

e|---------------------------------------------------------------------------|
B|---------------------------------------------------------------------------|
G|---------------------------------------------------------------------------|
D|---------------------------------------------------------------------------|
A|2--------------------------------------------------------------------------|
E|0--------------------------------------------------------------------------|

************************************

| /   slide up
| \   slide down
| h   hammer-on
| p   pull-off
| ~   vibrato
| +   harmonic
| x   Mute note
| b   Bend
| pb  Pre-bend
| br  Bend release
| pbr Pre-bend release
| brb Bend release bend

************************************
Добавлено: 13.10.2013
Другие материалы по этой песне:

Страница создана 26.02.2012
http://primanota.ru/nuclear-assault/brainwashed-chords.htm
Привет, Гость.
Предлагаем пройти революционный курс по гитаре.
Подарок от PrimaNota.Ru, забирай!