PrimaNota.ru - самый крупный в мире бесплатный архив песенных текстов, аккордов, табулатур и нот


Now Now - Roommates Live - таба, видео

Регистрация Запомнить меня
Войти через:  Facebook Google Twitter Vk Yandex Mail.ru

Now Now - Roommates Live - таба, видео

Печатать
Просмотров: 117
Уроки эстрадного вокала в Санкт-Петербурге
-------------------------------------------------------------------------------
                             Roommates (live) - Now, Now
-------------------------------------------------------------------------------
Tabbed by: aantidotess

Note: This is the *live* version of the song, which can be heard here:
https://www.youtube.com/watch?v=gC6y_lWKz_E


Tuning: EAC#EBe
Both guitars capo 3

Intro - no guitar

Verse 1
Jess
e |-------------------------------------------------------|
B |-------------------------------------------------------|
E |--------------9----------------------------------------|
C#|-8---8---10----------------8---8---10--8---------------|
A |---9---9----9---9--(x3)------9---9---9--9--------------|
E |-------------------------------------------------------| x1

Strum each chord once
e |-------------------------------------------------------|
B |-------------------------------------------------------|
E |-------------------------------------------------------|
C#|-1--0--1-----------------------------------------------|
A |-0--0--2-----------------------------------------------|
E |-2--0--0-----------------------------------------------| x3


Verse 2
Cacie 
e |-------------------------------------------------------|
B |-------------------------------------------------------|
E |-------------------------------------------------------|
C#|--8----0---1-------------------------------------------|
A |--9----0---2-------------------------------------------|
E |--10---0---2-------------------------------------------| x5

Jess
e |-------------------------------------------------------|
B |-------------------------------------------------------|
E |--------------9----------------------------------------|
C#|-8---8---10----------------8---8---10--8---------------|
A |---9---9----9---9--(x3)------9---9---9--9--------------|
E |-------------------------------------------------------| x2

e |-------------------------------------------------------|
B |-------------------------------------------------------|
E |--------------9----------------------------------------|
C#|-8---8---10----------------8---8---10--8---------------|
A |---9---9----9---9------------9---9---9--9--------------|
E |-------------------------------------------------------| x1



Bridge - no guitar



Jess (whilst Cacie plays the same chords)
e |-------------------------------------------------------|
B |-------------------------------------------------------|
E |--------------9----------------------------------------|
C#|-8---8---10----------------8---8---10--8---------------|
A |---9---9----9---9--(x3)------9---9---9--9--------------|
E |-------------------------------------------------------| x1


Outro 
Jess
e |-------------------------------------------------------|
B |-------------------------12-12-12-12-14-14-14-14-------|
E |-14-14-14-14-12-12-12-12-------------------------------|
C#|-------------------------------------------------------|
A |-------------------------------------------------------|
E |-------------------------------------------------------|

e |-------------------------------------------------------|
B |-------------------------------------------------------|
E |--------------------------16-16-16-16-17-17-17-17------|
C#|-13-13-13-13-------------------------------------------|
A |--------------16-16-16-16------------------------------|
E |-------------------------------------------------------| x3
Добавлено: 24.07.2015
Другие материалы по этой песне:
  • Аккорды и текст

Страница создана 24.07.2015
http://primanota.ru/now-now/roommates-live-chords.htm
Привет, Гость.
Предлагаем пройти революционный курс по гитаре.
Подарок от PrimaNota.Ru, забирай!