PrimaNota.ru - самый крупный в мире бесплатный архив песенных текстов, аккордов, табулатур и нот


Nouvelle Vague - A Forest - аккорды и текст, таба, видео

Регистрация Запомнить меня
Войти через:  Facebook Google Twitter Vk Yandex Mail.ru

Nouvelle Vague - A Forest - аккорды и текст, таба, видео

Печатать
Просмотров: 313
Уроки эстрадного вокала в Санкт-Петербурге
Авторы музыки: Simon Gallup, Robert Smith, Matthieu Hartley, Laurence Tolhurst
Авторы текста: Robert Smith
A Forest
Nouvelle Vague
Nouvelle Vague "A Forest"

     Gm   A#sus4  A#7  D#7  Csus2  Asus4  A#7  D#7  Gm/E
e:---------------------------------0------1-------------|
B:---3-----------------3----3------3------3----8----8---|
G:---0----8-------7----0----0------3------2----7----7---|
D:---5----6-------6----5----x------2------3----8----8---|
A:---5----8-------8----6----3------0------1----6----7---|
E:---3----6-------6-------------------------------------|

Strumming Pattern
e:------------------------:------------------------:  ^ : Up   Strum
B:-3--------3-----3--3--3-:------------------------:  v : Down Strum
G:-0--------0-----0--0--0-:-8-----8--8--7-----7--7-:
D:-5--------5-----5--5--5-:-6-----6--6--6-----6--6-:
A:-5--------5-----5--5--5-:-8-----8--8--8-----8--8-:
E:-3--------3-----3--3--3-:-6-----6--6--6-----6--6-:
   v        ^     ^  v  ^   v     v  ^  v     v  ^
   1 and 2 and 3 and 4 and  1 and 2 and 3 and 4 and

e:------------------------:------------------------:
B:-3--------3-----3--3--3-:-3--------3-------------:
G:-0--------0-----0--0--0-:-0--------0-------------:
D:-5--------5-----5--5--5-:-x--------x-------------:
A:-6--------6-----6--6--6-:-3--------3-----3--4--5-:
E:------------------------:------------------------:
   v        ^     ^  v  ^   v        ^     ^  v  ^
   1 and 2 and 3 and 4 and  1 and 2 and 3 and 4 and


Gm        A#sus4 A#7   
Come closer and see
D#7            Csus2
See into the trees
Gm        A#sus4 A#7
Find the girl
D#7            Csus2
If you can
Gm        A#sus4 A#7
Come closer and see
D#7            Csus2
See into the dark
Gm        A#sus4 A#7
Just follow your eyes
D#7            Csus2
Just follow your eyes

Asus4  A#7  D#7  A#7
Asus4  A#7  Gm/E D#7

Gm        A#sus4 A#7
I hear her voice
D#7            Csus2
Calling my name
Gm        A#sus4 A#7
The sound is deep
D#7            Csus2
In the dark
Gm        A#sus4 A#7
I hear her voice
D#7            Csus2
And start to run
Gm        A#sus4 A#7
Into the trees
D#7            Csus2
Into the trees

Asus4  A#7  D#7  A#7
Asus4  A#7  Gm/E D#7

Gm        A#sus4 A#7
Suddenly I stop
D#7            Csus2
But I know it's too late
Gm        A#sus4 A#7
I'm lost in a forest
D#7            Csus2
All alone
Gm        A#sus4 A#7
The girl was never there
D#7            Csus2
It's always the same
Gm        A#sus4 A#7
I'm running towards nothing
D#7            Csus2
Again and again and again and again

Asus4         A#7       D#7       A#7
And again and again and again and again
Asus4         A#7       Gm/E      D#7
And again and again and again and again
Добавлено: 19.05.2016
Другие материалы по этой песне:
  • Аккорды и текст

Страница создана 04.04.2012
http://primanota.ru/nouvelle-vague/a-forest-chords.htm
Привет, Гость.
Предлагаем пройти революционный курс по гитаре.
Подарок от PrimaNota.Ru, забирай!