PrimaNota.ru - самый крупный в мире бесплатный архив песенных текстов, аккордов, табулатур и нот


Nouveaux - Simply Beautiful - аккорды и текст, видео

Регистрация Запомнить меня
Войти через:  Facebook Google Twitter Vk Yandex Mail.ru

Nouveaux - Simply Beautiful - аккорды и текст, видео

Печатать
Просмотров: 63
Simply Beautiful
Nouveaux
		   Simply Beautiful
                                  Nouveaux
                From the album "...and This Is How I Feel"
                          Paul Alen, Steve Ashley
                   Copyright 1996 Dimension Music/SESAC

                        transcribed by Ron Masters
                          using standard tuning



Intro:

       Dm    Bb     Gm         
 |-----5-----1------3-----|
 |-----6-----3------3-----|
 |-----7-----3------3-----|  Repeat
 |-----7-----3------5-----|
 |-----5-----1------5-----|
 |------------------3-----|


Dm            Bb          Gm
Cling to your feeble understanding

Dm                Bb               Gm
Searching for the confines of your mind

Dm          Bb         Gm
You find no reason for believing

             Dm             Bb            Gm
While you're sinking in the ocean of your pride

Am Em7 F                             Am   G
G you stand on a mountain and close your eyes

Am    Em7 F                              G
Blind to  all of creation you look for a sign


CHORUS

      D            A          Bm       G
|-----2------------0----------2--------3----------|
|-----3------------2----------3--------0----------|
|-----2------------2----------4--------0----------|
|-----0------------2----------4--------0----------|
|------------------0----------2--------2----------|
|------------------0-------------------3----------|
While peace like a river runs into the setting sun

D     A            Bm    G
Mercy painting the sky

D          A         Bm         G
Nothing to analyze - making the simple wise

D       A              Bm    G       D         A  Bm  G
Looking through humble eyes     it's beautiful

       D         A  G
Simply Beautiful



Dm Bb Gm     Dm Bb Gm



Dm Bb   Gm       Dm   Bb  Gm
Picture window - pull the shade

Dm   Bb  Gm           Dm   Bb        Gm
Wait for light in the dark where you lay

Am Em7 F
G you stand on a mountain

          Am   G
And close your eyes

Am    Em7 F
Blind to  all of creation

               G
You look for a sign


CHORUS


2nd Time thorough during Keyboard solo:
E   B   C#m7  A
E   B   C#m7  A

Am Em7 F
G you stand on a mountain

          Am   G
And close your eyes

Am    Em7 F
Blind to  all of creation

               G
You look for a sign


CHORUS


OUT-TRO

   E            B        C#m7   A     E   B  C#m7  A
|--0------------2--------4------0--|
|--0------------3--------5------2--|
|--1------------3--------6------2--|
|--2------------3--------6------2--|
|--2------------2--------5------0--|
|--0-------------------------------|
   Peace like a river runs


   E            B        C#m7   A     E   B  C#m7  A
   Peace like a river runs




Chords Used:

    Dm(root 5) or  Dm    Bb    F     Gm
 |--5--------------1-----1-----1-----3-------------|
 |--6--------------3-----3-----1-----3-------------|
 |--7--------------2-----3-----2-----3-------------|
 |--7--------------0-----3-----3-----5-------------|
 |--5--------------------1-----3-----5-------------|
 |-----------------------------1-----3-------------|

       D     A     Bm    G     Em7  E   B   C#m7  
 |-----2-----0-----2-----3-----0----0---2---4------|
 |-----3-----2-----3-----0-----3----0---3---5------|
 |-----2-----2-----4-----0-----0----1---3---6------|
 |-----0-----2-----4-----0-----2----2---3---6------|
 |-----------0-----2-----2-----2----2---2---5------|
 |-----------0-----------3-----0----0--------------|



"G you stand on a mountain and close your eyes
Blind to all of creation..." sounds just like me, at one time.
I'm glad I know the Creator now.
==============================================================
Transcribed by Ron Masters - GuitarRon@aol.com on Sept 7, 1996
http://users.aol.com/guitarron
     
Добавлено: 02.12.2013
Другие материалы по этой песне:
  • Аккорды и текст

Страница создана 02.12.2013
http://primanota.ru/nouveaux/simply-beautiful-chords.htm
Привет, Гость.
Предлагаем пройти революционный курс по гитаре.
Подарок от PrimaNota.Ru, забирай!