PrimaNota.ru - самый крупный в мире бесплатный архив песенных текстов, аккордов, табулатур и нот


Nouveau Velo - Turning Away - аккорды и текст, видео

Регистрация Запомнить меня
Войти через:  Facebook Google Twitter Vk Yandex Mail.ru

Nouveau Velo - Turning Away - аккорды и текст, видео

Печатать
Просмотров: 104
Turning Away
Nouveau Velo
Nouveau Vélo - Turning Away
song: https://www.youtube.com/watch?v=B495lw7ab2Q

INTRO (main riff for the verses as well)
   F#7add4         E
e|----0---0---0---0-----------------|
B|--0---0---0---0---0-0-0-0-0-0-0-0-|
G|---3---3---3---3---1---1---1---1--|
D|-4---4---4---4---2---2---2---2----|
A|----------------------------------|
E|----------------------------------|


VERSE 1 (follow the above picking pattern)
F#6    
Whatever happens
E
Stay with me inside
F#6    
I made a promise
E
 You're rolling on your side

F#6    
You've never seen it
E
While I was staring at the sky
F#6    
You never opened
E
You were just telling lies and


CHORUS (2x)
F#                     G#m
Turning away, turning away
E             B
Turning away, turning away


INTERLUDE (2x)
   F#          G#m E       B/E
e|---------------------------------|
B|---------------------------4---4-|
G|---6---6---6---8---4---4---4---4-|
D|-4---4---4---6---2---2---2---2---|
A|---------------------------------|
E|---------------------------------|


VERSE 2
F#6    
Whatever happens
E
Stay with me inside
F#6    
Is there a problem?
E
You're rolling eyes, don't lie

F#6    
I've never seen it
E
While you were staring at the sky
F#6    
You never opened
E
Because of telling lies and


CHORUS (2x)
F#                     G#m
Turning away, turning away
E             B
Turning away, turning away


INTERLUDE (2x)
   F#          G#m E       B/E
e|---------------------------------|
B|---------------------------4---4-|
G|---6---6---6---8---4---4---4---4-|
D|-4---4---4---6---2---2---2---2---|
A|---------------------------------|
E|---------------------------------|


CHORUS (with interlude riff)
F#                     G#m
Turning away, turning away
E             B
Turning away, turning away


OUTRO (8x)
   C#              B
e|-------------------------|
B|-----------------4-------|
G|-----------3-4-6---------|
D|-----3-4-6---------------|
A|-4-6---------------------|
E|-------------------------|
Добавлено: 30.12.2015
Другие материалы по этой песне:
  • Аккорды и текст

Страница создана 30.12.2015
http://primanota.ru/nouveau-velo/turning-away-chords.htm
Привет, Гость.
Предлагаем пройти революционный курс по гитаре.
Подарок от PrimaNota.Ru, забирай!