PrimaNota.ru - самый крупный в мире бесплатный архив песенных текстов, аккордов, табулатур и нот


Noumena - Misanthropolis - текст песни, таба, видео

Регистрация Запомнить меня
Войти через:  Facebook Google Twitter Vk Yandex Mail.ru

Noumena - Misanthropolis - текст песни, таба, видео

Печатать
Просмотров: 231
Уроки эстрадного вокала в Санкт-Петербурге
Misanthropolis by Noumena
Drop D: D A D G B e

Intro
e|------------------|-----------------|------------------|-----------------|
B|------------------|-----------------|------------------|-------------5-6-|
G|---------7--------|---------------3-|---------7--------|-----7-----7-----|
D|-----7-------8/10-|-----7-------5---|-----7-------8/10-|---7-----5-------|
A|---5---5---5------|---5---5-3-6-----|---5---5---5------|-5-----8---------|
D|-0----------------|-0---------------|-0----------------|-----------------|
Pm                                                         .     .


e|-----------------------|------------------------|----------------------|
B|-----------------------|------------------------|----------------------|
G|----14-14-12-12-9-9-10-|----14-14-12-12-10-9----|---14-14-12-12-9-9-10-|
D|-12--------------------|-12------------------10-|-8--------------------|
A|-----------------------|------------------------|----------------------|
D|-----------------------|------------------------|----------------------|
Pm

1=========================         2==============================
e|------------------------|        |------------------------------|
B|------------------------|        |------------13-11h13p11-10-11-|
G|---14-14-12-12-14-15-12-| repeat |---14-14-12-------------------|
D|-8----------------------| prev.  |-8----------------------------|
A|------------------------| line   |------------------------------|
D|------------------------|        |------------------------------|
Pm


e|------------------------|------------------------------|
B|------------------------|------------------------------|
G|----14-14-12-12-10-10-9-|-10-9h10p9----------9-10p9----|
D|-12---------------------|-----------12-10-12--------10-|
A|------------------------|------------------------------|
D|------------------------|------------------------------|
Pm

e|----------------------|---------------------------|
B|----------------------|-11-10h11p10-8----8---10---|
G|---14-14-12-12-9-9-10-|---------------10----------|  x2
D|-8--------------------|---------------------------|
A|----------------------|---------------------------|
D|----------------------|---------------------------|
Pm


Pre-Verse
e|------------------|-----------------|
B|------------------|-----------------|
G|---------7--------|---------------3-|  x4
D|-----7-------8/10-|-----7-------5---|
A|---5---5---5------|---5---5---6-----|
D|-0----------------|-0-------5-------|
Pm . .   .   .        .       .


Verse
e|------------------|-----------------|    |------------------|
B|------------------|-----------------|    |------------------|
G|---------7--------|---------------3-| x7 |---------7--------|
D|-----7-------8/10-|-----7-------5---|    |-----7-------8/10-|
A|---5---5---5------|---5---5---6-----|    |---5---5---5------|
D|-0----------------|-0---------------|    |-0----------------|
Pm(.   .   .        .                        . .   .   .      )


Pre-Chorus Pt 1.
e|-----------------|-------------5-6-|-----5---8---5-6-|-------------5-6-|
B|-------------5-6-|-----8-----8-----|---8-------------|-----8-----8-----|
G|-----7-----7-----|---7-----7-------|-7-----7---7-----|---7-----7-------|
D|---7-----7-------|-5-----8---------|-----------------|-5-----5---------|
A|-5-----8---------|-----------------|-----------------|-----------------|
D|-----------------|-----------------|-----------------|-----------------|
Pm .     .           .     .           .     .   .       .     .

e|-----5---8---10-11-|-------------5-6-|-----5---8---5-6-|-------------5-6-|
B|---8---------------|-----8-----8-----|---8-------------|-----8-----8-----|
G|-7-----7---7-------|---7-----7-------|-7-----7---7-----|---7-----7-------|
D|-------------------|-5-----5---------|-----------------|-5-----5---------|
A|-------------------|-----------------|-----------------|-----------------|
D|-------------------|-----------------|-----------------|-----------------|
Pm .     .   .         .     .           .     .   .       .     .

e|---5-5-----------|
B|-------8-8-5-5-6-|
G|-7---------------|
D|-----------------|
A|-----------------|
D|-----------------|
Pm .


Pre-Chorus Pt 2.
e|-----------------------|------------------------|----------------------|
B|-----------------------|------------------------|----------------------|
G|----14-14-12-12-9-9-10-|----14-14-12-12-10-9----|---14-14-12-12-9-9-10-|
D|-12--------------------|-12------------------10-|-8--------------------|
A|-----------------------|------------------------|----------------------|
D|-----------------------|------------------------|----------------------|
Pm

1=========================         2==============================
e|------------------------|        |------------------------------|
B|------------------------|        |------------13-11h13p11-10-11-|
G|---14-14-12-12-14-15-12-| repeat |---14-14-12-------------------|
D|-8----------------------| prev.  |-8----------------------------|
A|------------------------| line   |------------------------------|
D|------------------------|        |------------------------------|
Pm

Chorus
e|------------------------|------------------------------|
B|------------------------|------------------------------|
G|----14-14-12-12-10-10-9-|-10-9h10p9----------9-10p9----|
D|-12---------------------|-----------12-10-12--------10-|
A|------------------------|------------------------------|
D|------------------------|------------------------------|
Pm

e|----------------------|---------------------------|
B|----------------------|-11-10h11p10-8----8---10---|
G|---14-14-12-12-9-9-10-|---------------10----------|  x2
D|-8--------------------|---------------------------|
A|----------------------|---------------------------|
D|----------------------|---------------------------|
Pm


Verse
e|------------------|-----------------|    |------------------|
B|------------------|-----------------|    |------------------|
G|---------7--------|---------------3-| x3 |---------7--------|
D|-----7-------8/10-|-----7-------5---|    |-----7-------8/10-|
A|---5---5---5------|---5---5---6-----|    |---5---5---5------|
D|-0----------------|-0---------------|    |-0----------------|
Pm(.   .   .        .                        . .   .   .      )

Pre-Chorus
e|-----------------|-------------5-6-|-----5---8---5-6-|-------------5-6-|
B|-------------5-6-|-----8-----8-----|---8-------------|-----8-----8-----|
G|-----7-----7-----|---7-----7-------|-7-----7---7-----|---7-----7-------|
D|---7-----7-------|-5-----8---------|-----------------|-5-----5---------|
A|-5-----8---------|-----------------|-----------------|-----------------|
D|-----------------|-----------------|-----------------|-----------------|
Pm .     .           .     .           .     .   .       .     .

e|-----5---8---10-11-|-------------5-6-|-----5---8---5-6-|-------------5-6-|
B|---8---------------|-----8-----8-----|---8-------------|-----8-----8-----|
G|-7-----7---7-------|---7-----7-------|-7-----7---7-----|---7-----7-------|
D|-------------------|-5-----5---------|-----------------|-5-----5---------|
A|-------------------|-----------------|-----------------|-----------------|
D|-------------------|-----------------|-----------------|-----------------|
Pm .     .   .         .     .           .     .   .       .     .

e|---5-5-----------|
B|-------8-8-5-5-6-|
G|-7---------------|
D|-----------------|
A|-----------------|
D|-----------------|
Pm .


Bridge
e|------------------|-----------------|------------------|
B|------------------|-----------------|------------------|
G|---------7--------|---------------3-|---------7--------|
D|-----7-------8/10-|-----7-------5---|-----7-------8/10-|
A|---5---5---5------|---5---5-3-6-----|---5---5---5------|
D|-0----------------|-0---------------|-0----------------|
Pm

                              "Solo"
e|-----------------------------------|-------------------------------------|
B|-----------------------------------|-------------------------------------|
G|-----------------------------15-15-|-15---14---12---10-/12---------------|
D|---------7-------------------------|-------------------------------------|
A|-----5-------5---3-----------------|-------------------------------------|
D|-0---------------------------------|-------------------------------------|
Pm
   1   +   2   +   3   +   4   +       1    +    2    +    3   +   4   +   etc...

e|-----------------------------------|---------------------|
B|-----------------------------15-15-|-15-13---------------|
G|-----------------------------------|-------12-14---------|
D|-----------------------------------|---------------------|
A|-----------------------------------|---------------------|
D|-----------------------------------|---------------------|
Pm

e|-----------------------------------|----------------------|
B|-----------------------------17-17-|-17-18-17-13/15-------|
G|-----------------------------------|----------------------|
D|-----------------------------------|----------------------|
A|-----------------------------------|----------------------|
D|-----------------------------------|----------------------|
Pm

e|-----------------------------------|--------------------|------------------|
B|-----------------------------17-17-|-17-18-13-----------|------------------|
G|-----------------------------------|----------14--------|------------------|
D|-----------------------------------|--------------------|-12\--------------|
A|-----------------------------------|--------------------|-12\--------------|
D|-----------------------------------|--------------------|------------------|
Pm

Bridge
e|------------------|-----------------|     |-----------------|
B|------------------|-----------------|     |-----------------|
G|---------7--------|---------------3-|  x4 |---3---3---------|
D|-----7-------8/10-|-----7-------5---|     |-5---5-----------|
A|---5---5---5------|---5---5---6-----|     |-----------------|
D|-0----------------|-0-------5-------|     |-----------------|
Pm . .   .   .        .       .

Pre-Chorus Pt 2.
e|-----------------------|------------------------|----------------------|
B|-----------------------|------------------------|----------------------|
G|----14-14-12-12-9-9-10-|----14-14-12-12-10-9----|---14-14-12-12-9-9-10-|
D|-12--------------------|-12------------------10-|-8--------------------|
A|-----------------------|------------------------|----------------------|
D|-----------------------|------------------------|----------------------|
Pm

1=========================         2==============================
e|------------------------|        |------------------------------|
B|------------------------|        |------------13-11h13p11-10-11-|
G|---14-14-12-12-14-15-12-| repeat |---14-14-12-------------------|
D|-8----------------------| prev.  |-8----------------------------|
A|------------------------| line   |------------------------------|
D|------------------------|        |------------------------------|
Pm

Chorus
e|------------------------|------------------------------|
B|------------------------|------------------------------|
G|----14-14-12-12-10-10-9-|-10-9h10p9----------9-10p9----|
D|-12---------------------|-----------12-10-12--------10-|
A|------------------------|------------------------------|
D|------------------------|------------------------------|
Pm

e|----------------------|---------------------------|
B|----------------------|-11-10h11p10-8----8---10---|
G|---14-14-12-12-9-9-10-|---------------10----------|  x4
D|-8--------------------|---------------------------|
A|----------------------|---------------------------|
D|----------------------|---------------------------|
Pm

e|---------------------------------|-----------------|-----------------|
B|---------------------------------|-----------------|-----------------|
G|---------------------------------|-----------------|-----------------|
D|-0---0---0-0---0-0---0---0-------|-----------------|-----------------|
A|-0---0---0-0---0-0---0---0-------|-----------------|-----------------|
D|-0---0---0-0---0-0---0---0-------|-----------------|-----------------|
Pm
Добавлено: 14.08.2015
Вам также может быть интересно:
Другие материалы по этой песне:

Страница создана 14.06.2012
http://primanota.ru/noumena/misanthropolis-chords.htm
Привет, Гость.
Предлагаем пройти революционный курс по гитаре.
Подарок от PrimaNota.Ru, забирай!