PrimaNota.ru - самый крупный в мире бесплатный архив песенных текстов, аккордов, табулатур и нот


Notwist - On Planet Off - аккорды и текст, видео

Регистрация Запомнить меня
Войти через:  Facebook Google Twitter Vk Yandex Mail.ru

Notwist - On Planet Off - аккорды и текст, видео

Печатать
Просмотров: 49
On Planet Off
Notwist
Song: On Planet Off
Band: The Notwist
Album: The Devil, You + Me
Year: 2008
Tabber: beranger80@hotmail.com



Intro (0:00)

e---------------------------|
b---------------------------|
g--------7-------7-----7----|
d------7---7---7-----7------|
a--3-5-------6-----5-----5--|
e---------------------------|



Verse (0:15)

D        
I have never been here on my own
D
It's pushing me off today
D
I can hear a clink in every bone
D
It's pushing me off today



Chorus (0:44)

Gm           Bb          D
But I would never beat you up
             Gm       D
For being that off today
Gm           Bb          D
But I would never beat you up
             Gm       D
For being that off today



Break (1:14)

D



Verse (1:21)

D
I hope I never swim my rounds alone
D
There's always someone who knows me well
D
I hope I never run my lanes alone
D
And there's always someone who knows too well



Chorus (1:51)

Gm           Bb          D
But I would never beat you up
             Gm       D
For being that off today
Gm           Bb          D
But I would never beat you up
             Gm       D
For being that off today



Bridge (2:20)

e---------------------------|
b---------------------------|
g--------7-------7-----7----|
d------7---7---7-----7------|
a--3-5-------6-----5-----5--|
e---------------------------|

2:25
e-------------|
b--11-10-8----|
g----------7--|
d-------------| x2
a-------------|
e-------------|



Verse (2:53)

  Gm                         F   
I hope I never swim my rounds alone
               C              D 
There's always someone who knows me well
  Gm                         F   
I hope I never swim my rounds alone
                    C             D 
There's always someone who knows to well



Chorus (3:23)

    Gm                       F  
But I would never beat you up
               C    D 
For being that off today
Gm                       F  
I would never beat one up
               C     D 
For being that off today



Outro (3:52)

e-----|-----|-----|-----|
b-----|-----|-----|-----|
g--3--|--2--|--5--|--7--|
d--5--|--3--|--5--|--7--|
a--5--|--3--|--3--|--5--|
e--3--|--1--|-----|-----|

e--------|--------|--------|--------|
b-----3--|-----3--|-----3--|--------|
g--3-----|--2-----|--5-----|--7--7--|
d--5-----|--3-----|--5-----|--7-----| x3
a--5-----|--3-----|--3-----|--5-----|
e--3-----|--1-----|--------|--------|


e-----|-----|
b-----|-----|
g--3--|-----|
d--5--|-----|
a--5--|--5--|
e--3--|-----|
Добавлено: 15.08.2015
Другие материалы по этой песне:
  • Аккорды и текст

Страница создана 15.08.2015
http://primanota.ru/notwist/on-planet-off-chords.htm
Привет, Гость.
Предлагаем пройти революционный курс по гитаре.
Подарок от PrimaNota.Ru, забирай!