PrimaNota.ru - самый крупный в мире бесплатный архив песенных текстов, аккордов, табулатур и нот


Notorious Big - Hypnotize - текст песни, бас-таба, видео

Регистрация Запомнить меня
Войти через:  Facebook Google Twitter Vk Yandex Mail.ru

Notorious Big - Hypnotize - текст песни, бас-таба, видео

Печатать
Просмотров: 388
Авторы музыки: Andy Armer, Deric "D-Dot" Angelettie, Sean Combs, Ron Lawrence, Randy "Badazz" Alpert, Christopher Wallace

-------------------------------------------------------------------------------
                                                 Hypnotize - The Notorious B.I.G
-------------------------------------------------------------------------------
Tabbed by: Ben Griffiths
BASS TAB 

Tuning: STANDARD (E A D G)

Pretty easy song to learn, playing this tab with
the song on will help pick up the timings and to know when the 
bass isnt played.


INTRO:
G|-------------------------------------------------------|
D|-------------------------------------------------------|
A|------7---------7-------7---7---7---7-----------5--7---|
E|---0---0---0-0---0----0---0---0---0-----0-0-0-0--------|

VERSE/MAIN RIFF (REPEATED)
G|------------------------------|
D|------------------------------|
A|----------------------5--7----|
E|---0-0-0-0----0-0-0-0---------|

Send me a message through my account if you spot any problems with this tab.
Please rate and comment 
Cheers Guys :) 



| /  slide up
| \  slide down
| h  hammer-on
| p  pull-off
| ~  vibrato
| +  harmonic
| x  Mute note
=============================================================================
Добавлено: 18.08.2013
Другие материалы по этой песне:
  • Аккорды и текст

Страница создана 01.05.2012
http://primanota.ru/notorious-big/hypnotize-chords.htm
Привет, Гость.
Предлагаем пройти революционный курс по гитаре.
Подарок от PrimaNota.Ru, забирай!