PrimaNota.ru - самый крупный в мире бесплатный архив песенных текстов, аккордов, табулатур и нот


Nothington - Going Home - таба, видео

Регистрация Запомнить меня
Войти через:  Facebook Google Twitter Vk Yandex Mail.ru

Nothington - Going Home - таба, видео

Печатать
Просмотров: 100
Nothington - Going Home - All In [Eb,Ab,Db,Gb,Bb,Eb]
Tabbed By Jordan Fuller 7/21/10

Intro

Eb:--3-3-33-33-------------------------------------------------|
Ab:--2-2-22-22-0h2---3--3-3-33-33------------------------------|
Db:--0-0-00-00-----2----2-2-22-22------------------------------|
Gb:--0-0-00-00----------0-0-00-00-------2-3b-0-2-0-------------|x2
Bb:--3-3-33-33----------3-3-33-33------------------------------|
Eb:--3-3-33-33----------3-3-33-33------------------------------|


Verse

Eb:--3-3-3-3-33-33---------------------------------------------|
Ab:--2-2-2-2-22-22-3-3-3-3-33-33-------------------------------|
Db:--0-0-0-0-00-00-2-2-2-2-22-22-------------------------------|x3
Gb:--0-0-0-0-00-00-0-0-0-0-00-00-------------------------------|
Bb:--3-3-3-3-33-33-3-3-3-3-33-33-------------------------------|
Eb:--3-3-3-3-33-33-3-3-3-3-33-33-------------------------------|


Pre-Chorus

Eb:--0-0-0-0-00-00---------------------------------------------|
Ab:--0-0-0-0-00-00-3-3-3-3-33-33-------------------------------|
Db:--0-0-0-0-00-00-2-2-2-2-22-22-------------------------------|
Gb:--2-2-2-2-22-22-0-0-0-0-00-00-------------------------------|
Bb:--3-3-3-3-33-33-3-3-3-3-33-33-------------------------------|
Eb:--2-2-2-2-22-22-2-2-2-2-22-22-------------------------------|

After 1st Pre-Chorus Go back to Intro Riff then back to Verse x2
Chorus

Eb:------------------------------------------------3---2b------|
Ab:--2-2-2-2-22-22-0-0-0-0-00-00-3-3-3-3-33-33-----------------|
Db:--2-2-2-2-22-22-0-0-0-0-00-00-2-2-2-2-22-22-----------------|x4
Gb:--x-x-x-x-xx-xx-2-2-2-2-22-22-0-0-0-0-00-00-----------------|
Bb:--3-3-3-3-33-33-3-3-3-3-33-33-3-3-3-3-33-33-----------------|
Eb:--3-3-3-3-33-33-2-2-2-2-22-33-3-3-3-3-33-33-----------------|

After Chorus Go to Verse Riff than to Chorus Like x8 or more

Verse Riff

Eb:--3---------------------------------------------------------|
Ab:--2--3------------------------------------------------------|
Db:--0--2------------------------------------------------------|
Gb:--0--0------------------------------------------------------|
Bb:--3--3----3---3---------------------------------------------|
Eb:--3--3--3---3-----------------------------------------------|


Enjoy! Message Me Or Email Me For Problems Or Rythems

http://www.myspace.com/nothington
Добавлено: 15.07.2012
Другие материалы по этой песне:
  • Аккорды и текст

Страница создана 15.07.2012
http://primanota.ru/nothington/going-home-chords.htm
Привет, Гость.
Предлагаем пройти революционный курс по гитаре.
Подарок от PrimaNota.Ru, забирай!