PrimaNota.ru - самый крупный в мире бесплатный архив песенных текстов, аккордов, табулатур и нот


Nothingface - Villains - текст песни, таба, видео

Регистрация Запомнить меня
Войти через:  Facebook Google Twitter Vk Yandex Mail.ru

Nothingface - Villains - текст песни, таба, видео

Печатать
Просмотров: 90
sorry but i only know the second half of the song. the other tabs don't sound right to me.

Verse 2
|--------------------------------------|x2
|--------------------------------------|
|--------------------------------------|
|-3-00-7-0-3-5-3-0-7-3-6-5-0-3-5-3-777-|
|-3-00-7-0-3-5-3-0-7-3-6-5-0-3-5-3-777-|
|-3-00-7-0-3-5-3-0-7-3-6-5-0-3-5-3-777-|
    ..   .       .         .

|--------------------------------------|x2
|--------------------------------------|
|--------------------------------------|
|-3-00-7-0-3-5-3-0-7-3-6-5-0-3-5-3-777-|
|-3-00-7-0-3-5-3-0-7-3-6-5-0-3-5-3-777-|
|-3-00-7-0-3-5-3-0-7-3-6-5-0-3-5-3-777-|
........................................

|--------------------------------------|x2
|--------------------------------------|
|--------------------------------------|
|-3-00-7-0-3-5-3-0-7-3-6-5-0-3-5-3-777-|
|-3-00-7-0-3-5-3-0-7-3-6-5-0-3-5-3-777-|
|-3-00-7-0-3-5-3-0-7-3-6-5-0-3-5-3-777-|
    ..   .       .         .

|--------------------------------------|x2
|--------------------------------------|
|--------------------------------------|
|-3-00-7-0-3-5-3-0-7-3-6-5-0-3-5-3-777-|
|-3-00-7-0-3-5-3-0-7-3-6-5-0-3-5-3-777-|
|-3-00-7-0-3-5-3-0-7-3-6-5-0-3-5-3-777-|
........................................

Bridge
|-----------------------------------------|
|-----------------------------------------|
|-----------------------------------------|
|-000--000--000--000--000--000--000-------|
|-000--000--000--000--000--000--000-3-6-5-|
|-000--000--000--000--000--000--000-------|
  ..   ..   ..   ..   ..   ..   ..

|------------------------------------------|x6
|------------------------------------------|
|------------------------------------------|
|-000--000--000-------000--000-------------|
|-000--000--000-3-6-5-000--000-3-6-5-3-5-4-|
|-000--000--000-------000--000-------------|
  ..   ..   ..        ..   ..

|---------------------------------|
|---------------------------------|
|---------------------------------|
|-000--000--000--000--000--000--0-|
|-000--000--000--000--000--000--0-|
|-000--000--000--000--000--000--0-|
  ..   ..   ..   ..   ..   ..   .

Verse 2
|--------------------------------------|x2
|--------------------------------------|
|--------------------------------------|
|-3-00-7-0-3-5-3-0-7-3-6-5-0-3-5-3-777-|
|-3-00-7-0-3-5-3-0-7-3-6-5-0-3-5-3-777-|
|-3-00-7-0-3-5-3-0-7-3-6-5-0-3-5-3-777-|
    ..   .       .         .

|--------------------------------------|x2
|--------------------------------------|
|--------------------------------------|
|-3-00-7-0-3-5-3-0-7-3-6-5-0-3-5-3-777-|
|-3-00-7-0-3-5-3-0-7-3-6-5-0-3-5-3-777-|
|-3-00-7-0-3-5-3-0-7-3-6-5-0-3-5-3-777-|
........................................

|--------------------------------------|x2
|--------------------------------------|
|--------------------------------------|
|-3-00-7-0-3-5-3-0-7-3-6-5-0-3-5-3-777-|
|-3-00-7-0-3-5-3-0-7-3-6-5-0-3-5-3-777-|
|-3-00-7-0-3-5-3-0-7-3-6-5-0-3-5-3-777-|
    ..   .       .         .

|---|
|---|
|---|
|-3-|
|-3-|
|-3-|
Добавлено: 06.07.2013
Вам также может быть интересно:
Другие материалы по этой песне:
  • Аккорды и текст

Страница создана 06.07.2013
http://primanota.ru/nothingface/villains-chords.htm
Привет, Гость.
Предлагаем пройти революционный курс по гитаре.
Подарок от PrimaNota.Ru, забирай!